ISO-10303-21;
HEADER;
FILE_DESCRIPTION (( 'STEP AP203' ),
    '1' );
FILE_NAME ('367507.STEP',
    '2023-08-02T05:52:43',
    ( 'Windows User' ),
    ( 'P R C' ),
    'SwSTEP 2.0',
    'SolidWorks 2020',
    '' );
FILE_SCHEMA (( 'CONFIG_CONTROL_DESIGN' ));
ENDSEC;

DATA;
#1 = FACE_OUTER_BOUND ( 'NONE', #187, .T. ) ;
#2 = DATE_AND_TIME ( #52, #222 ) ;
#3 = ORIENTED_EDGE ( 'NONE', *, *, #95, .F. ) ;
#4 = APPROVAL_STATUS ( 'not_yet_approved' ) ;
#5 = ORIENTED_EDGE ( 'NONE', *, *, #182, .T. ) ;
#6 = COORDINATED_UNIVERSAL_TIME_OFFSET ( 8, 0, .AHEAD. ) ;
#7 = ORIENTED_EDGE ( 'NONE', *, *, #226, .T. ) ;
#8 =( GEOMETRIC_REPRESENTATION_CONTEXT ( 3 ) GLOBAL_UNCERTAINTY_ASSIGNED_CONTEXT ( ( #19 ) ) GLOBAL_UNIT_ASSIGNED_CONTEXT ( ( #57, #183, #55 ) ) REPRESENTATION_CONTEXT ( 'NONE', 'WORKASPACE' ) );
#9 = ORIENTED_EDGE ( 'NONE', *, *, #116, .T. ) ;
#10 = VECTOR ( 'NONE', #180, 1000.000000000000000 ) ;
#11 = VECTOR ( 'NONE', #18, 1000.000000000000000 ) ;
#12 = CC_DESIGN_PERSON_AND_ORGANIZATION_ASSIGNMENT ( #138, #205, ( #64 ) ) ;
#13 = LINE ( 'NONE', #66, #174 ) ;
#14 = ADVANCED_FACE ( 'NONE', ( #111 ), #58, .F. ) ;
#15 = FACE_OUTER_BOUND ( 'NONE', #137, .T. ) ;
#16 = PRODUCT ( '367507', '367507', '', ( #70 ) ) ;
#17 = CARTESIAN_POINT ( 'NONE',  ( 20.00000000000000000, 19.99999999999999289, 0.000000000000000000 ) ) ;
#18 = DIRECTION ( 'NONE',  ( -0.000000000000000000, -0.000000000000000000, -1.000000000000000000 ) ) ;
#19 = UNCERTAINTY_MEASURE_WITH_UNIT (LENGTH_MEASURE( 1.000000000000000082E-05 ), #57, 'distance_accuracy_value', 'NONE');
#20 = EDGE_CURVE ( 'NONE', #151, #25, #214, .T. ) ;
#21 = AXIS2_PLACEMENT_3D ( 'NONE', #178, #121, #119 ) ;
#22 = EDGE_LOOP ( 'NONE', ( #74, #109, #202, #204 ) ) ;
#23 = PERSON_AND_ORGANIZATION ( #117, #35 ) ;
#24 = DIRECTION ( 'NONE',  ( -3.061616997868382648E-16, 1.000000000000000000, 0.000000000000000000 ) ) ;
#25 = VERTEX_POINT ( 'NONE', #48 ) ;
#26 = APPROVAL_STATUS ( 'not_yet_approved' ) ;
#27 = APPROVAL_PERSON_ORGANIZATION ( #73, #190, #37 ) ;
#28 = CARTESIAN_POINT ( 'NONE',  ( 20.00000000000000000, 19.99999999999999289, 20.00000000000000000 ) ) ;
#29 = ADVANCED_FACE ( 'NONE', ( #15 ), #47, .F. ) ;
#30 = FACE_OUTER_BOUND ( 'NONE', #39, .T. ) ;
#31 = DIRECTION ( 'NONE',  ( 0.7071067811865475727, -0.7071067811865475727, 0.000000000000000000 ) ) ;
#32 = APPLICATION_CONTEXT ( 'configuration controlled 3d designs of mechanical parts and assemblies' ) ;
#33 = CARTESIAN_POINT ( 'NONE',  ( 40.00000000000000000, 1.599557266632798346E-14, 0.000000000000000000 ) ) ;
#34 = DIRECTION ( 'NONE',  ( -0.7071067811865479058, 0.7071067811865470176, -0.000000000000000000 ) ) ;
#35 = ORGANIZATION ( 'Î´Ö¸¶¨', 'Î´Ö¸¶¨', '' ) ;
#36 = APPROVAL ( #4, 'Î´Ö¸¶¨' ) ;
#37 = APPROVAL_ROLE ( '' ) ;
#38 = ORIENTED_EDGE ( 'NONE', *, *, #98, .T. ) ;
#39 = EDGE_LOOP ( 'NONE', ( #184, #114, #96, #166 ) ) ;
#40 = COORDINATED_UNIVERSAL_TIME_OFFSET ( 8, 0, .AHEAD. ) ;
#41 = ORIENTED_EDGE ( 'NONE', *, *, #163, .F. ) ;
#42 = PERSON_AND_ORGANIZATION_ROLE ( 'classification_officer' ) ;
#43 = AXIS2_PLACEMENT_3D ( 'NONE', #157, #230, #141 ) ;
#44 = SECURITY_CLASSIFICATION ( '', '', #207 ) ;
#45 = PLANE ( 'NONE',  #21 ) ;
#46 = VECTOR ( 'NONE', #197, 1000.000000000000000 ) ;
#47 = PLANE ( 'NONE',  #54 ) ;
#48 = CARTESIAN_POINT ( 'NONE',  ( 20.00000000000000000, 19.99999999999999289, 0.000000000000000000 ) ) ;
#49 = CARTESIAN_POINT ( 'NONE',  ( 40.00000000000000000, 1.599557266632798346E-14, 20.00000000000000000 ) ) ;
#50 = DIRECTION ( 'NONE',  ( 0.7071067811865479058, -0.7071067811865470176, 0.000000000000000000 ) ) ;
#51 = CC_DESIGN_DATE_AND_TIME_ASSIGNMENT ( #2, #149, ( #79 ) ) ;
#52 = CALENDAR_DATE ( 2023, 2, 8 ) ;
#53 = COORDINATED_UNIVERSAL_TIME_OFFSET ( 8, 0, .AHEAD. ) ;
#54 = AXIS2_PLACEMENT_3D ( 'NONE', #85, #31, #126 ) ;
#55 =( NAMED_UNIT ( * ) SI_UNIT ( $, .STERADIAN. ) SOLID_ANGLE_UNIT ( ) );
#56 = VERTEX_POINT ( 'NONE', #158 ) ;
#57 =( LENGTH_UNIT ( ) NAMED_UNIT ( * ) SI_UNIT ( .MILLI., .METRE. ) );
#58 = PLANE ( 'NONE',  #118 ) ;
#59 = AXIS2_PLACEMENT_3D ( 'NONE', #89, #220, #110 ) ;
#60 = PERSON_AND_ORGANIZATION ( #117, #35 ) ;
#61 = VERTEX_POINT ( 'NONE', #232 ) ;
#62 = CC_DESIGN_PERSON_AND_ORGANIZATION_ASSIGNMENT ( #169, #42, ( #44 ) ) ;
#63 = LINE ( 'NONE', #233, #193 ) ;
#64 = PRODUCT_DEFINITION_FORMATION_WITH_SPECIFIED_SOURCE ( 'ÈÎºÎ', '', #16, .NOT_KNOWN. ) ;
#65 = DIRECTION ( 'NONE',  ( -0.000000000000000000, -0.000000000000000000, -1.000000000000000000 ) ) ;
#66 = CARTESIAN_POINT ( 'NONE',  ( -40.00000000000000000, -8.497363316619076152E-15, 20.00000000000000000 ) ) ;
#67 = DIRECTION ( 'NONE',  ( -0.000000000000000000, -0.000000000000000000, -1.000000000000000000 ) ) ;
#68 = CARTESIAN_POINT ( 'NONE',  ( -20.00000000000000000, 19.99999999999999289, 20.00000000000000000 ) ) ;
#69 = PERSON_AND_ORGANIZATION ( #117, #35 ) ;
#70 = MECHANICAL_CONTEXT ( 'NONE', #80, 'mechanical' ) ;
#71 = ADVANCED_FACE ( 'NONE', ( #30 ), #216, .F. ) ;
#72 = ORIENTED_EDGE ( 'NONE', *, *, #139, .F. ) ;
#73 = PERSON_AND_ORGANIZATION ( #117, #35 ) ;
#74 = ORIENTED_EDGE ( 'NONE', *, *, #200, .T. ) ;
#75 = APPROVAL_DATE_TIME ( #225, #190 ) ;
#76 = ORIENTED_EDGE ( 'NONE', *, *, #156, .T. ) ;
#77 = LOCAL_TIME ( 13, 52, 43.00000000000000000, #164 ) ;
#78 = VECTOR ( 'NONE', #236, 1000.000000000000000 ) ;
#79 = PRODUCT_DEFINITION ( 'Î´Öª', '', #64, #171 ) ;
#80 = APPLICATION_CONTEXT ( 'configuration controlled 3d designs of mechanical parts and assemblies' ) ;
#81 = VECTOR ( 'NONE', #65, 1000.000000000000000 ) ;
#82 = LINE ( 'NONE', #28, #78 ) ;
#83 = PLANE ( 'NONE',  #43 ) ;
#84 = PRODUCT_RELATED_PRODUCT_CATEGORY ( 'detail', '', ( #16 ) ) ;
#85 = CARTESIAN_POINT ( 'NONE',  ( -20.00000000000000000, 19.99999999999999289, 20.00000000000000000 ) ) ;
#86 = DIRECTION ( 'NONE',  ( -0.7071067811865471286, -0.7071067811865480168, 0.000000000000000000 ) ) ;
#87 = CARTESIAN_POINT ( 'NONE',  ( 20.00000000000000000, 19.99999999999999289, 20.00000000000000000 ) ) ;
#88 = APPLICATION_PROTOCOL_DEFINITION ( 'international standard', 'config_control_design', 1994, #32 ) ;
#89 = CARTESIAN_POINT ( 'NONE',  ( 0.000000000000000000, 0.000000000000000000, 0.000000000000000000 ) ) ;
#90 = PERSON_AND_ORGANIZATION_ROLE ( 'design_owner' ) ;
#91 = EDGE_LOOP ( 'NONE', ( #41, #132, #72, #221 ) ) ;
#92 = ORIENTED_EDGE ( 'NONE', *, *, #163, .T. ) ;
#93 = PERSON_AND_ORGANIZATION_ROLE ( 'design_supplier' ) ;
#94 = ORIENTED_EDGE ( 'NONE', *, *, #95, .T. ) ;
#95 = EDGE_CURVE ( 'NONE', #151, #170, #82, .T. ) ;
#96 = ORIENTED_EDGE ( 'NONE', *, *, #98, .F. ) ;
#97 = CC_DESIGN_APPROVAL ( #190, ( #64 ) ) ;
#98 = EDGE_CURVE ( 'NONE', #173, #151, #140, .T. ) ;
#99 = CARTESIAN_POINT ( 'NONE',  ( 40.00000000000000000, 1.599557266632798346E-14, 0.000000000000000000 ) ) ;
#100 = CC_DESIGN_DATE_AND_TIME_ASSIGNMENT ( #136, #189, ( #44 ) ) ;
#101 = CARTESIAN_POINT ( 'NONE',  ( 20.00000000000000000, 19.99999999999999289, 0.000000000000000000 ) ) ;
#102 = FACE_OUTER_BOUND ( 'NONE', #112, .T. ) ;
#103 = DIRECTION ( 'NONE',  ( 1.000000000000000000, 3.061616997868382648E-16, -0.000000000000000000 ) ) ;
#104 = LINE ( 'NONE', #49, #10 ) ;
#105 = APPROVAL_PERSON_ORGANIZATION ( #113, #129, #223 ) ;
#106 = CLOSED_SHELL ( 'NONE', ( #29, #14, #71, #181, #229, #224 ) ) ;
#107 = DIRECTION ( 'NONE',  ( 1.000000000000000000, 0.000000000000000000, -0.000000000000000000 ) ) ;
#108 = MANIFOLD_SOLID_BREP ( 'Í¹Ì¨-À­Éì1', #106 ) ;
#109 = ORIENTED_EDGE ( 'NONE', *, *, #211, .F. ) ;
#110 = DIRECTION ( 'NONE',  ( 1.000000000000000000, 0.000000000000000000, 0.000000000000000000 ) ) ;
#111 = FACE_OUTER_BOUND ( 'NONE', #22, .T. ) ;
#112 = EDGE_LOOP ( 'NONE', ( #7, #130, #3, #135 ) ) ;
#113 = PERSON_AND_ORGANIZATION ( #117, #35 ) ;
#114 = ORIENTED_EDGE ( 'NONE', *, *, #20, .F. ) ;
#115 = CALENDAR_DATE ( 2023, 2, 8 ) ;
#116 = EDGE_CURVE ( 'NONE', #150, #173, #104, .T. ) ;
#117 = PERSON ( 'Î´Ö¸¶¨', 'Î´Ö¸¶¨', 'Î´Ö¸¶¨', ('Î´Ö¸¶¨'), ('Î´Ö¸¶¨'), ('Î´Ö¸¶¨') ) ;
#118 = AXIS2_PLACEMENT_3D ( 'NONE', #186, #24, #168 ) ;
#119 = DIRECTION ( 'NONE',  ( 0.000000000000000000, -0.000000000000000000, -1.000000000000000000 ) ) ;
#120 = EDGE_CURVE ( 'NONE', #150, #56, #13, .T. ) ;
#121 = DIRECTION ( 'NONE',  ( 0.000000000000000000, -1.000000000000000000, 0.000000000000000000 ) ) ;
#122 = DIRECTION ( 'NONE',  ( -0.7071067811865474617, -0.7071067811865474617, 0.000000000000000000 ) ) ;
#123 = LINE ( 'NONE', #68, #144 ) ;
#124 = VECTOR ( 'NONE', #167, 1000.000000000000000 ) ;
#125 = SHAPE_DEFINITION_REPRESENTATION ( #160, #215 ) ;
#126 = DIRECTION ( 'NONE',  ( 0.7071067811865474617, 0.7071067811865474617, 0.000000000000000000 ) ) ;
#127 = DIRECTION ( 'NONE',  ( 0.000000000000000000, 0.000000000000000000, 1.000000000000000000 ) ) ;
#128 = CC_DESIGN_APPROVAL ( #36, ( #79 ) ) ;
#129 = APPROVAL ( #26, 'Î´Ö¸¶¨' ) ;
#130 = ORIENTED_EDGE ( 'NONE', *, *, #182, .F. ) ;
#131 = CARTESIAN_POINT ( 'NONE',  ( 0.000000000000000000, 0.000000000000000000, 20.00000000000000000 ) ) ;
#132 = ORIENTED_EDGE ( 'NONE', *, *, #226, .F. ) ;
#133 = PLANE ( 'NONE',  #134 ) ;
#134 = AXIS2_PLACEMENT_3D ( 'NONE', #131, #127, #107 ) ;
#135 = ORIENTED_EDGE ( 'NONE', *, *, #20, .T. ) ;
#136 = DATE_AND_TIME ( #115, #208 ) ;
#137 = EDGE_LOOP ( 'NONE', ( #92, #188, #153, #5 ) ) ;
#138 = PERSON_AND_ORGANIZATION ( #117, #35 ) ;
#139 = EDGE_CURVE ( 'NONE', #219, #25, #177, .T. ) ;
#140 = LINE ( 'NONE', #198, #231 ) ;
#141 = DIRECTION ( 'NONE',  ( 1.000000000000000000, 0.000000000000000000, -0.000000000000000000 ) ) ;
#142 = VECTOR ( 'NONE', #161, 1000.000000000000114 ) ;
#143 = CARTESIAN_POINT ( 'NONE',  ( -40.00000000000000000, -8.497363316619076152E-15, 20.00000000000000000 ) ) ;
#144 = VECTOR ( 'NONE', #159, 1000.000000000000114 ) ;
#145 = CARTESIAN_POINT ( 'NONE',  ( 20.00000000000000000, 19.99999999999999289, 20.00000000000000000 ) ) ;
#146 = CARTESIAN_POINT ( 'NONE',  ( 40.00000000000000000, 1.599557266632798346E-14, 20.00000000000000000 ) ) ;
#147 = CC_DESIGN_PERSON_AND_ORGANIZATION_ASSIGNMENT ( #60, #93, ( #64 ) ) ;
#148 = CALENDAR_DATE ( 2023, 2, 8 ) ;
#149 = DATE_TIME_ROLE ( 'creation_date' ) ;
#150 = VERTEX_POINT ( 'NONE', #143 ) ;
#151 = VERTEX_POINT ( 'NONE', #227 ) ;
#152 = COORDINATED_UNIVERSAL_TIME_OFFSET ( 8, 0, .AHEAD. ) ;
#153 = ORIENTED_EDGE ( 'NONE', *, *, #156, .F. ) ;
#154 = CALENDAR_DATE ( 2023, 2, 8 ) ;
#155 = CARTESIAN_POINT ( 'NONE',  ( -20.00000000000000000, 19.99999999999999289, 20.00000000000000000 ) ) ;
#156 = EDGE_CURVE ( 'NONE', #170, #150, #123, .T. ) ;
#157 = CARTESIAN_POINT ( 'NONE',  ( 0.000000000000000000, 0.000000000000000000, 0.000000000000000000 ) ) ;
#158 = CARTESIAN_POINT ( 'NONE',  ( -40.00000000000000000, -8.497363316619076152E-15, 0.000000000000000000 ) ) ;
#159 = DIRECTION ( 'NONE',  ( -0.7071067811865474617, -0.7071067811865474617, 0.000000000000000000 ) ) ;
#160 = PRODUCT_DEFINITION_SHAPE ( 'NONE', 'NONE',  #79 ) ;
#161 = DIRECTION ( 'NONE',  ( -0.7071067811865479058, 0.7071067811865470176, -0.000000000000000000 ) ) ;
#162 = CC_DESIGN_SECURITY_CLASSIFICATION ( #44, ( #64 ) ) ;
#163 = EDGE_CURVE ( 'NONE', #61, #56, #63, .T. ) ;
#164 = COORDINATED_UNIVERSAL_TIME_OFFSET ( 8, 0, .AHEAD. ) ;
#165 = PERSON_AND_ORGANIZATION_ROLE ( 'creator' ) ;
#166 = ORIENTED_EDGE ( 'NONE', *, *, #211, .T. ) ;
#167 = DIRECTION ( 'NONE',  ( -1.000000000000000000, 0.000000000000000000, 0.000000000000000000 ) ) ;
#168 = DIRECTION ( 'NONE',  ( -1.000000000000000000, -3.061616997868382648E-16, 0.000000000000000000 ) ) ;
#169 = PERSON_AND_ORGANIZATION ( #117, #35 ) ;
#170 = VERTEX_POINT ( 'NONE', #155 ) ;
#171 = DESIGN_CONTEXT ( 'detailed design', #32, 'design' ) ;
#172 = APPROVAL_PERSON_ORGANIZATION ( #23, #36, #217 ) ;
#173 = VERTEX_POINT ( 'NONE', #196 ) ;
#174 = VECTOR ( 'NONE', #67, 1000.000000000000000 ) ;
#175 = CC_DESIGN_PERSON_AND_ORGANIZATION_ASSIGNMENT ( #185, #90, ( #16 ) ) ;
#176 = FACE_OUTER_BOUND ( 'NONE', #91, .T. ) ;
#177 = LINE ( 'NONE', #17, #142 ) ;
#178 = CARTESIAN_POINT ( 'NONE',  ( 20.00000000000000000, 19.99999999999999289, 20.00000000000000000 ) ) ;
#179 = LINE ( 'NONE', #146, #11 ) ;
#180 = DIRECTION ( 'NONE',  ( 1.000000000000000000, 3.061616997868382648E-16, -0.000000000000000000 ) ) ;
#181 = ADVANCED_FACE ( 'NONE', ( #102 ), #45, .F. ) ;
#182 = EDGE_CURVE ( 'NONE', #170, #61, #209, .T. ) ;
#183 =( NAMED_UNIT ( * ) PLANE_ANGLE_UNIT ( ) SI_UNIT ( $, .RADIAN. ) );
#184 = ORIENTED_EDGE ( 'NONE', *, *, #139, .T. ) ;
#185 = PERSON_AND_ORGANIZATION ( #117, #35 ) ;
#186 = CARTESIAN_POINT ( 'NONE',  ( 40.00000000000000000, 1.599557266632798346E-14, 20.00000000000000000 ) ) ;
#187 = EDGE_LOOP ( 'NONE', ( #76, #9, #38, #94 ) ) ;
#188 = ORIENTED_EDGE ( 'NONE', *, *, #120, .F. ) ;
#189 = DATE_TIME_ROLE ( 'classification_date' ) ;
#190 = APPROVAL ( #201, 'Î´Ö¸¶¨' ) ;
#191 = AXIS2_PLACEMENT_3D ( 'NONE', #145, #86, #50 ) ;
#192 = LINE ( 'NONE', #33, #212 ) ;
#193 = VECTOR ( 'NONE', #122, 1000.000000000000114 ) ;
#194 = CARTESIAN_POINT ( 'NONE',  ( -20.00000000000000000, 19.99999999999999289, 20.00000000000000000 ) ) ;
#195 = APPROVAL_DATE_TIME ( #234, #129 ) ;
#196 = CARTESIAN_POINT ( 'NONE',  ( 40.00000000000000000, 1.599557266632798346E-14, 20.00000000000000000 ) ) ;
#197 = DIRECTION ( 'NONE',  ( -0.000000000000000000, -0.000000000000000000, -1.000000000000000000 ) ) ;
#198 = CARTESIAN_POINT ( 'NONE',  ( 20.00000000000000000, 19.99999999999999289, 20.00000000000000000 ) ) ;
#199 = LOCAL_TIME ( 13, 52, 43.00000000000000000, #6 ) ;
#200 = EDGE_CURVE ( 'NONE', #56, #219, #192, .T. ) ;
#201 = APPROVAL_STATUS ( 'not_yet_approved' ) ;
#202 = ORIENTED_EDGE ( 'NONE', *, *, #116, .F. ) ;
#203 = APPLICATION_PROTOCOL_DEFINITION ( 'international standard', 'config_control_design', 1994, #80 ) ;
#204 = ORIENTED_EDGE ( 'NONE', *, *, #120, .T. ) ;
#205 = PERSON_AND_ORGANIZATION_ROLE ( 'creator' ) ;
#206 = CC_DESIGN_PERSON_AND_ORGANIZATION_ASSIGNMENT ( #69, #165, ( #79 ) ) ;
#207 = SECURITY_CLASSIFICATION_LEVEL ( 'unclassified' ) ;
#208 = LOCAL_TIME ( 13, 52, 43.00000000000000000, #152 ) ;
#209 = LINE ( 'NONE', #194, #81 ) ;
#210 = LINE ( 'NONE', #101, #124 ) ;
#211 = EDGE_CURVE ( 'NONE', #173, #219, #179, .T. ) ;
#212 = VECTOR ( 'NONE', #103, 1000.000000000000000 ) ;
#213 = CALENDAR_DATE ( 2023, 2, 8 ) ;
#214 = LINE ( 'NONE', #87, #46 ) ;
#215 = ADVANCED_BREP_SHAPE_REPRESENTATION ( '367507', ( #108, #59 ), #8 ) ;
#216 = PLANE ( 'NONE',  #191 ) ;
#217 = APPROVAL_ROLE ( '' ) ;
#218 = APPROVAL_DATE_TIME ( #237, #36 ) ;
#219 = VERTEX_POINT ( 'NONE', #99 ) ;
#220 = DIRECTION ( 'NONE',  ( 0.000000000000000000, 0.000000000000000000, 1.000000000000000000 ) ) ;
#221 = ORIENTED_EDGE ( 'NONE', *, *, #200, .F. ) ;
#222 = LOCAL_TIME ( 13, 52, 43.00000000000000000, #53 ) ;
#223 = APPROVAL_ROLE ( '' ) ;
#224 = ADVANCED_FACE ( 'NONE', ( #176 ), #83, .F. ) ;
#225 = DATE_AND_TIME ( #154, #199 ) ;
#226 = EDGE_CURVE ( 'NONE', #25, #61, #210, .T. ) ;
#227 = CARTESIAN_POINT ( 'NONE',  ( 20.00000000000000000, 19.99999999999999289, 20.00000000000000000 ) ) ;
#228 = LOCAL_TIME ( 13, 52, 43.00000000000000000, #40 ) ;
#229 = ADVANCED_FACE ( 'NONE', ( #1 ), #133, .T. ) ;
#230 = DIRECTION ( 'NONE',  ( 0.000000000000000000, 0.000000000000000000, 1.000000000000000000 ) ) ;
#231 = VECTOR ( 'NONE', #34, 1000.000000000000114 ) ;
#232 = CARTESIAN_POINT ( 'NONE',  ( -20.00000000000000000, 19.99999999999999289, 0.000000000000000000 ) ) ;
#233 = CARTESIAN_POINT ( 'NONE',  ( -20.00000000000000000, 19.99999999999999289, 0.000000000000000000 ) ) ;
#234 = DATE_AND_TIME ( #213, #228 ) ;
#235 = CC_DESIGN_APPROVAL ( #129, ( #44 ) ) ;
#236 = DIRECTION ( 'NONE',  ( -1.000000000000000000, 0.000000000000000000, 0.000000000000000000 ) ) ;
#237 = DATE_AND_TIME ( #148, #77 ) ;
ENDSEC;
END-ISO-10303-21;
