ISO-10303-21;
HEADER;
FILE_DESCRIPTION (( 'STEP AP203' ),
    '1' );
FILE_NAME ('371500.STEP',
    '2024-06-11T08:15:01',
    ( 'Windows User' ),
    ( 'P R C' ),
    'SwSTEP 2.0',
    'SolidWorks 2020',
    '' );
FILE_SCHEMA (( 'CONFIG_CONTROL_DESIGN' ));
ENDSEC;

DATA;
#1 = ORIENTED_EDGE ( 'NONE', *, *, #34, .F. ) ;
#2 = ORIENTED_EDGE ( 'NONE', *, *, #34, .T. ) ;
#3 = DIRECTION ( 'NONE',  ( -0.000000000000000000, -0.000000000000000000, -1.000000000000000000 ) ) ;
#4 = DIRECTION ( 'NONE',  ( 0.000000000000000000, 0.000000000000000000, 1.000000000000000000 ) ) ;
#5 = CC_DESIGN_APPROVAL ( #82, ( #29 ) ) ;
#6 = CARTESIAN_POINT ( 'NONE',  ( 1.000129878768512670, -5.196785604553538995, 2.630878620670818346 ) ) ;
#7 = DESIGN_CONTEXT ( 'detailed design', #20, 'design' ) ;
#8 = DIRECTION ( 'NONE',  ( 1.000000000000000000, 0.000000000000000000, 0.000000000000000000 ) ) ;
#9 = DATE_AND_TIME ( #43, #135 ) ;
#10 = DATE_TIME_ROLE ( 'creation_date' ) ;
#11 = APPLICATION_PROTOCOL_DEFINITION ( 'international standard', 'config_control_design', 1994, #20 ) ;
#12 = CC_DESIGN_PERSON_AND_ORGANIZATION_ASSIGNMENT ( #13, #54, ( #29 ) ) ;
#13 = PERSON_AND_ORGANIZATION ( #18, #190 ) ;
#14 = ORIENTED_EDGE ( 'NONE', *, *, #120, .F. ) ;
#15 = MANIFOLD_SOLID_BREP ( 'ÇÐ³ý-À­Éì3', #183 ) ;
#16 = LOCAL_TIME ( 16, 15, 1.000000000000000000, #69 ) ;
#17 = FACE_OUTER_BOUND ( 'NONE', #148, .T. ) ;
#18 = PERSON ( 'Î´Ö¸¶¨', 'Î´Ö¸¶¨', 'Î´Ö¸¶¨', ('Î´Ö¸¶¨'), ('Î´Ö¸¶¨'), ('Î´Ö¸¶¨') ) ;
#19 = DIRECTION ( 'NONE',  ( -1.000000000000000000, 0.000000000000000000, 0.000000000000000000 ) ) ;
#20 = APPLICATION_CONTEXT ( 'configuration controlled 3d designs of mechanical parts and assemblies' ) ;
#21 = APPROVAL ( #127, 'Î´Ö¸¶¨' ) ;
#22 = CARTESIAN_POINT ( 'NONE',  ( 4.000504878768514239, 1.633720593454507478E-05, 3.706361558180906179 ) ) ;
#23 = LINE ( 'NONE', #109, #85 ) ;
#24 = CARTESIAN_POINT ( 'NONE',  ( -2.000245121231489343, -3.464518290633709974, 6.873168383176867735 ) ) ;
#25 = APPROVAL_DATE_TIME ( #39, #21 ) ;
#26 = PERSON_AND_ORGANIZATION ( #18, #190 ) ;
#27 = PERSON_AND_ORGANIZATION ( #18, #190 ) ;
#28 = DIRECTION ( 'NONE',  ( 0.4082765531884056665, -0.7071557336614137101, 0.5772703218305810235 ) ) ;
#29 = SECURITY_CLASSIFICATION ( '', '', #189 ) ;
#30 = ORIENTED_EDGE ( 'NONE', *, *, #66, .T. ) ;
#31 = ORIENTED_EDGE ( 'NONE', *, *, #77, .F. ) ;
#32 = CARTESIAN_POINT ( 'NONE',  ( 4.878768514605404637E-06, 1.633720593454507478E-05, 9.701361558180906286 ) ) ;
#33 = CARTESIAN_POINT ( 'NONE',  ( -2.000245121231489787, 3.464550965045579023, 6.873168383176867735 ) ) ;
#34 = EDGE_CURVE ( 'NONE', #71, #58, #136, .T. ) ;
#35 = CARTESIAN_POINT ( 'NONE',  ( 4.878768514605404637E-06, 1.633720593454507478E-05, 3.706361558180905735 ) ) ;
#36 = CARTESIAN_POINT ( 'NONE',  ( 1.000129878768509117, 5.196818278965408489, 2.630878620670819679 ) ) ;
#37 = CARTESIAN_POINT ( 'NONE',  ( 4.878768514605404637E-06, 1.633720593454507478E-05, 3.706361558180906179 ) ) ;
#38 = PERSON_AND_ORGANIZATION ( #18, #190 ) ;
#39 = DATE_AND_TIME ( #119, #133 ) ;
#40 = VECTOR ( 'NONE', #182, 1000.000000000000114 ) ;
#41 = APPROVAL_PERSON_ORGANIZATION ( #26, #82, #191 ) ;
#42 = CALENDAR_DATE ( 2024, 11, 6 ) ;
#43 = CALENDAR_DATE ( 2024, 11, 6 ) ;
#44 = AXIS2_PLACEMENT_3D ( 'NONE', #184, #154, #153 ) ;
#45 = CC_DESIGN_PERSON_AND_ORGANIZATION_ASSIGNMENT ( #159, #81, ( #156 ) ) ;
#46 = CARTESIAN_POINT ( 'NONE',  ( 4.637570916034193580, -2.677483662794054808, 9.701361558180906286 ) ) ;
#47 = APPROVAL_PERSON_ORGANIZATION ( #145, #193, #67 ) ;
#48 = DIRECTION ( 'NONE',  ( 0.8165531063768112219, 2.544391007381786265E-16, -0.5772703218305786921 ) ) ;
#49 = DIRECTION ( 'NONE',  ( 1.000000000000000000, 0.000000000000000000, -0.000000000000000000 ) ) ;
#50 = LINE ( 'NONE', #92, #40 ) ;
#51 = EDGE_CURVE ( 'NONE', #58, #178, #50, .T. ) ;
#52 = DATE_AND_TIME ( #142, #118 ) ;
#53 = ADVANCED_FACE ( 'NONE', ( #151 ), #73, .T. ) ;
#54 = PERSON_AND_ORGANIZATION_ROLE ( 'classification_officer' ) ;
#55 = CC_DESIGN_SECURITY_CLASSIFICATION ( #29, ( #104 ) ) ;
#56 = CALENDAR_DATE ( 2024, 11, 6 ) ;
#57 = CC_DESIGN_APPROVAL ( #21, ( #156 ) ) ;
#58 = VERTEX_POINT ( 'NONE', #91 ) ;
#59 = CARTESIAN_POINT ( 'NONE',  ( -2.000245121231489343, -3.464518290633709974, 6.873168383176867735 ) ) ;
#60 = DIRECTION ( 'NONE',  ( 0.000000000000000000, 0.6325343505460013782, 0.7745323075116674616 ) ) ;
#61 = CARTESIAN_POINT ( 'NONE',  ( 3.682777908361847263, 2.126266337205927837, 9.701361558180906286 ) ) ;
#62 = EDGE_CURVE ( 'NONE', #58, #89, #23, .T. ) ;
#63 = COORDINATED_UNIVERSAL_TIME_OFFSET ( 8, 0, .AHEAD. ) ;
#64 = AXIS2_PLACEMENT_3D ( 'NONE', #32, #3, #19 ) ;
#65 = COORDINATED_UNIVERSAL_TIME_OFFSET ( 8, 0, .AHEAD. ) ;
#66 = EDGE_CURVE ( 'NONE', #89, #178, #116, .T. ) ;
#67 = APPROVAL_ROLE ( '' ) ;
#68 = COORDINATED_UNIVERSAL_TIME_OFFSET ( 8, 0, .AHEAD. ) ;
#69 = COORDINATED_UNIVERSAL_TIME_OFFSET ( 8, 0, .AHEAD. ) ;
#70 = ADVANCED_FACE ( 'NONE', ( #123 ), #167, .F. ) ;
#71 = VERTEX_POINT ( 'NONE', #33 ) ;
#72 = EDGE_LOOP ( 'NONE', ( #14 ) ) ;
#73 = PLANE ( 'NONE',  #130 ) ;
#74 = DIRECTION ( 'NONE',  ( 0.000000000000000000, 0.000000000000000000, 1.000000000000000000 ) ) ;
#75 = AXIS2_PLACEMENT_3D ( 'NONE', #61, #170, #60 ) ;
#76 = AXIS2_PLACEMENT_3D ( 'NONE', #83, #160, #188 ) ;
#77 = EDGE_CURVE ( 'NONE', #71, #89, #98, .T. ) ;
#78 = CARTESIAN_POINT ( 'NONE',  ( 4.000504878768515127, 1.633720593503499525E-05, 6.873168383176884610 ) ) ;
#79 = PRODUCT ( '371500', '371500', '', ( #141 ) ) ;
#80 = DIRECTION ( 'NONE',  ( 0.4082200218682778825, 0.7070578185427394136, 0.5774302165486712157 ) ) ;
#81 = PERSON_AND_ORGANIZATION_ROLE ( 'creator' ) ;
#82 = APPROVAL ( #131, 'Î´Ö¸¶¨' ) ;
#83 = CARTESIAN_POINT ( 'NONE',  ( 0.000000000000000000, 0.000000000000000000, 0.000000000000000000 ) ) ;
#84 = APPROVAL_DATE_TIME ( #132, #82 ) ;
#85 = VECTOR ( 'NONE', #48, 1000.000000000000114 ) ;
#86 = CC_DESIGN_DATE_AND_TIME_ASSIGNMENT ( #52, #10, ( #156 ) ) ;
#87 = EDGE_LOOP ( 'NONE', ( #181 ) ) ;
#88 = ORIENTED_EDGE ( 'NONE', *, *, #150, .F. ) ;
#89 = VERTEX_POINT ( 'NONE', #107 ) ;
#90 = CARTESIAN_POINT ( 'NONE',  ( -5.000620121231482251, 1.732283651125755330, 2.630878620670829449 ) ) ;
#91 = CARTESIAN_POINT ( 'NONE',  ( 4.878768514876488214E-06, 1.633720593428936570E-05, 9.701361558180906286 ) ) ;
#92 = CARTESIAN_POINT ( 'NONE',  ( 4.878768514696528441E-06, 1.633720593454507478E-05, 9.701361558180906286 ) ) ;
#93 = UNCERTAINTY_MEASURE_WITH_UNIT (LENGTH_MEASURE( 1.000000000000000082E-05 ), #186, 'distance_accuracy_value', 'NONE');
#94 = PERSON_AND_ORGANIZATION ( #18, #190 ) ;
#95 = VECTOR ( 'NONE', #28, 1000.000000000000114 ) ;
#96 =( NAMED_UNIT ( * ) SI_UNIT ( $, .STERADIAN. ) SOLID_ANGLE_UNIT ( ) );
#97 = DATE_AND_TIME ( #42, #174 ) ;
#98 =( BOUNDED_CURVE ( )  B_SPLINE_CURVE ( 3, ( #125, #36, #139, #78 ),
 .UNSPECIFIED., .F., .T. ) 
 B_SPLINE_CURVE_WITH_KNOTS ( ( 4, 4 ),
 ( 5.235987755982989711, 7.330382858376186306 ),
 .UNSPECIFIED. ) 
 CURVE ( )  GEOMETRIC_REPRESENTATION_ITEM ( )  RATIONAL_B_SPLINE_CURVE ( ( 1.000000000000000000, 0.6666666666666662966, 0.6666666666666662966, 1.000000000000000000 ) ) 
 REPRESENTATION_ITEM ( '' )  );
#99 = ADVANCED_FACE ( 'NONE', ( #140, #152 ), #149, .T. ) ;
#100 = APPLICATION_PROTOCOL_DEFINITION ( 'international standard', 'config_control_design', 1994, #101 ) ;
#101 = APPLICATION_CONTEXT ( 'configuration controlled 3d designs of mechanical parts and assemblies' ) ;
#102 = ORIENTED_EDGE ( 'NONE', *, *, #62, .T. ) ;
#103 = EDGE_LOOP ( 'NONE', ( #121, #1, #88 ) ) ;
#104 = PRODUCT_DEFINITION_FORMATION_WITH_SPECIFIED_SOURCE ( 'ÈÎºÎ', '', #79, .NOT_KNOWN. ) ;
#105 = ORIENTED_EDGE ( 'NONE', *, *, #62, .F. ) ;
#106 = ORIENTED_EDGE ( 'NONE', *, *, #66, .F. ) ;
#107 = CARTESIAN_POINT ( 'NONE',  ( 4.000504878768515127, 1.633720593503499525E-05, 6.873168383176884610 ) ) ;
#108 =( GEOMETRIC_REPRESENTATION_CONTEXT ( 3 ) GLOBAL_UNCERTAINTY_ASSIGNED_CONTEXT ( ( #93 ) ) GLOBAL_UNIT_ASSIGNED_CONTEXT ( ( #186, #128, #96 ) ) REPRESENTATION_CONTEXT ( 'NONE', 'WORKASPACE' ) );
#109 = CARTESIAN_POINT ( 'NONE',  ( 4.878768515151842532E-06, 1.633720593454507478E-05, 9.701361558180906286 ) ) ;
#110 = PLANE ( 'NONE',  #75 ) ;
#111 = CARTESIAN_POINT ( 'NONE',  ( -5.000620121231482251, -1.732250976713887169, 2.630878620670830781 ) ) ;
#112 = DIRECTION ( 'NONE',  ( 0.000000000000000000, -0.6325343505460013782, 0.7745323075116674616 ) ) ;
#113 = PERSON_AND_ORGANIZATION_ROLE ( 'creator' ) ;
#114 = PRODUCT_DEFINITION_SHAPE ( 'NONE', 'NONE',  #156 ) ;
#115 = CC_DESIGN_PERSON_AND_ORGANIZATION_ASSIGNMENT ( #144, #173, ( #79 ) ) ;
#116 =( BOUNDED_CURVE ( )  B_SPLINE_CURVE ( 3, ( #169, #187, #6, #137 ),
 .UNSPECIFIED., .F., .T. ) 
 B_SPLINE_CURVE_WITH_KNOTS ( ( 4, 4 ),
 ( 5.235987755982986158, 7.330382858376182753 ),
 .UNSPECIFIED. ) 
 CURVE ( )  GEOMETRIC_REPRESENTATION_ITEM ( )  RATIONAL_B_SPLINE_CURVE ( ( 1.000000000000000000, 0.6666666666666662966, 0.6666666666666662966, 1.000000000000000000 ) ) 
 REPRESENTATION_ITEM ( '' )  );
#117 = COORDINATED_UNIVERSAL_TIME_OFFSET ( 8, 0, .AHEAD. ) ;
#118 = LOCAL_TIME ( 16, 15, 1.000000000000000000, #63 ) ;
#119 = CALENDAR_DATE ( 2024, 11, 6 ) ;
#120 = EDGE_CURVE ( 'NONE', #126, #126, #177, .T. ) ;
#121 = ORIENTED_EDGE ( 'NONE', *, *, #51, .F. ) ;
#122 = FACE_OUTER_BOUND ( 'NONE', #72, .T. ) ;
#123 = FACE_OUTER_BOUND ( 'NONE', #103, .T. ) ;
#124 = ADVANCED_FACE ( 'NONE', ( #122 ), #138, .F. ) ;
#125 = CARTESIAN_POINT ( 'NONE',  ( -2.000245121231489787, 3.464550965045579023, 6.873168383176867735 ) ) ;
#126 = VERTEX_POINT ( 'NONE', #22 ) ;
#127 = APPROVAL_STATUS ( 'not_yet_approved' ) ;
#128 =( NAMED_UNIT ( * ) PLANE_ANGLE_UNIT ( ) SI_UNIT ( $, .RADIAN. ) );
#129 = APPROVAL_STATUS ( 'not_yet_approved' ) ;
#130 = AXIS2_PLACEMENT_3D ( 'NONE', #46, #80, #112 ) ;
#131 = APPROVAL_STATUS ( 'not_yet_approved' ) ;
#132 = DATE_AND_TIME ( #56, #16 ) ;
#133 = LOCAL_TIME ( 16, 15, 1.000000000000000000, #65 ) ;
#134 = EDGE_LOOP ( 'NONE', ( #165, #30, #166 ) ) ;
#135 = LOCAL_TIME ( 16, 15, 1.000000000000000000, #68 ) ;
#136 = LINE ( 'NONE', #162, #95 ) ;
#137 = CARTESIAN_POINT ( 'NONE',  ( -2.000245121231489343, -3.464518290633709974, 6.873168383176867735 ) ) ;
#138 = PLANE ( 'NONE',  #146 ) ;
#139 = CARTESIAN_POINT ( 'NONE',  ( 4.000504878768513350, 3.464550965045585684, 2.630878620670825896 ) ) ;
#140 = FACE_OUTER_BOUND ( 'NONE', #134, .T. ) ;
#141 = MECHANICAL_CONTEXT ( 'NONE', #101, 'mechanical' ) ;
#142 = CALENDAR_DATE ( 2024, 11, 6 ) ;
#143 = CC_DESIGN_PERSON_AND_ORGANIZATION_ASSIGNMENT ( #27, #176, ( #104 ) ) ;
#144 = PERSON_AND_ORGANIZATION ( #18, #190 ) ;
#145 = PERSON_AND_ORGANIZATION ( #18, #190 ) ;
#146 = AXIS2_PLACEMENT_3D ( 'NONE', #35, #4, #49 ) ;
#147 = APPROVAL_PERSON_ORGANIZATION ( #38, #21, #172 ) ;
#148 = EDGE_LOOP ( 'NONE', ( #180, #106, #105 ) ) ;
#149 = CYLINDRICAL_SURFACE ( 'NONE', #64, 4.000499999999999723 ) ;
#150 = EDGE_CURVE ( 'NONE', #178, #71, #157, .T. ) ;
#151 = FACE_OUTER_BOUND ( 'NONE', #164, .T. ) ;
#152 = FACE_OUTER_BOUND ( 'NONE', #87, .T. ) ;
#153 = DIRECTION ( 'NONE',  ( -0.5774302165486712157, 0.000000000000000000, -0.8164400437365592067 ) ) ;
#154 = DIRECTION ( 'NONE',  ( 0.8164400437365592067, 0.000000000000000000, -0.5774302165486712157 ) ) ;
#155 = CC_DESIGN_APPROVAL ( #193, ( #104 ) ) ;
#156 = PRODUCT_DEFINITION ( 'Î´Öª', '', #104, #7 ) ;
#157 =( BOUNDED_CURVE ( )  B_SPLINE_CURVE ( 3, ( #59, #111, #90, #185 ),
 .UNSPECIFIED., .F., .T. ) 
 B_SPLINE_CURVE_WITH_KNOTS ( ( 4, 4 ),
 ( 5.235987755982989711, 7.330382858376182753 ),
 .UNSPECIFIED. ) 
 CURVE ( )  GEOMETRIC_REPRESENTATION_ITEM ( )  RATIONAL_B_SPLINE_CURVE ( ( 1.000000000000000000, 0.6666666666666674068, 0.6666666666666674068, 1.000000000000000000 ) ) 
 REPRESENTATION_ITEM ( '' )  );
#158 = DATE_TIME_ROLE ( 'classification_date' ) ;
#159 = PERSON_AND_ORGANIZATION ( #18, #190 ) ;
#160 = DIRECTION ( 'NONE',  ( 0.000000000000000000, 0.000000000000000000, 1.000000000000000000 ) ) ;
#161 = PRODUCT_RELATED_PRODUCT_CATEGORY ( 'detail', '', ( #79 ) ) ;
#162 = CARTESIAN_POINT ( 'NONE',  ( -2.000245121231490675, 3.464550965045581243, 6.873168383176865071 ) ) ;
#163 = AXIS2_PLACEMENT_3D ( 'NONE', #37, #74, #8 ) ;
#164 = EDGE_LOOP ( 'NONE', ( #31, #2, #102 ) ) ;
#165 = ORIENTED_EDGE ( 'NONE', *, *, #77, .T. ) ;
#166 = ORIENTED_EDGE ( 'NONE', *, *, #150, .T. ) ;
#167 = PLANE ( 'NONE',  #44 ) ;
#168 = ADVANCED_BREP_SHAPE_REPRESENTATION ( '371500', ( #15, #76 ), #108 ) ;
#169 = CARTESIAN_POINT ( 'NONE',  ( 4.000504878768515127, 1.633720593503499525E-05, 6.873168383176884610 ) ) ;
#170 = DIRECTION ( 'NONE',  ( -0.4082200218682780490, 0.7070578185427394136, -0.5774302165486712157 ) ) ;
#171 = CC_DESIGN_DATE_AND_TIME_ASSIGNMENT ( #97, #158, ( #29 ) ) ;
#172 = APPROVAL_ROLE ( '' ) ;
#173 = PERSON_AND_ORGANIZATION_ROLE ( 'design_owner' ) ;
#174 = LOCAL_TIME ( 16, 15, 1.000000000000000000, #117 ) ;
#175 = APPROVAL_DATE_TIME ( #9, #193 ) ;
#176 = PERSON_AND_ORGANIZATION_ROLE ( 'design_supplier' ) ;
#177 = CIRCLE ( 'NONE', #163, 4.000499999999999723 ) ;
#178 = VERTEX_POINT ( 'NONE', #24 ) ;
#179 = CC_DESIGN_PERSON_AND_ORGANIZATION_ASSIGNMENT ( #94, #113, ( #104 ) ) ;
#180 = ORIENTED_EDGE ( 'NONE', *, *, #51, .T. ) ;
#181 = ORIENTED_EDGE ( 'NONE', *, *, #120, .T. ) ;
#182 = DIRECTION ( 'NONE',  ( -0.4082765531884056665, -0.7071557336614137101, -0.5772703218305810235 ) ) ;
#183 = CLOSED_SHELL ( 'NONE', ( #124, #99, #70, #194, #53 ) ) ;
#184 = CARTESIAN_POINT ( 'NONE',  ( 4.878768514605404637E-06, -7.717483662794065502, 9.701361558180906286 ) ) ;
#185 = CARTESIAN_POINT ( 'NONE',  ( -2.000245121231489787, 3.464550965045579023, 6.873168383176867735 ) ) ;
#186 =( LENGTH_UNIT ( ) NAMED_UNIT ( * ) SI_UNIT ( .MILLI., .METRE. ) );
#187 = CARTESIAN_POINT ( 'NONE',  ( 4.000504878768515127, -3.464518290633713526, 2.630878620670827672 ) ) ;
#188 = DIRECTION ( 'NONE',  ( 1.000000000000000000, 0.000000000000000000, 0.000000000000000000 ) ) ;
#189 = SECURITY_CLASSIFICATION_LEVEL ( 'unclassified' ) ;
#190 = ORGANIZATION ( 'Î´Ö¸¶¨', 'Î´Ö¸¶¨', '' ) ;
#191 = APPROVAL_ROLE ( '' ) ;
#192 = SHAPE_DEFINITION_REPRESENTATION ( #114, #168 ) ;
#193 = APPROVAL ( #129, 'Î´Ö¸¶¨' ) ;
#194 = ADVANCED_FACE ( 'NONE', ( #17 ), #110, .F. ) ;
ENDSEC;
END-ISO-10303-21;
