ISO-10303-21;
HEADER;
FILE_DESCRIPTION (( 'STEP AP203' ),
    '1' );
FILE_NAME ('371502.STEP',
    '2019-07-24T08:03:53',
    ( '' ),
    ( '' ),
    'SwSTEP 2.0',
    'SolidWorks 2016',
    '' );
FILE_SCHEMA (( 'CONFIG_CONTROL_DESIGN' ));
ENDSEC;

DATA;
#1 = VERTEX_POINT ( 'NONE', #84 ) ;
#2 = APPROVAL_DATE_TIME ( #78, #29 ) ;
#3 =( BOUNDED_CURVE ( )  B_SPLINE_CURVE ( 3, ( #204, #109, #211, #274 ),
 .UNSPECIFIED., .F., .F. ) 
 B_SPLINE_CURVE_WITH_KNOTS ( ( 4, 4 ),
 ( 0.0000000000000000000, 1.047197551196595900 ),
 .UNSPECIFIED. ) 
 CURVE ( )  GEOMETRIC_REPRESENTATION_ITEM ( )  RATIONAL_B_SPLINE_CURVE ( ( 1.000000000000000000, 0.9106836025229594300, 0.9106836025229594300, 1.000000000000000000 ) ) 
 REPRESENTATION_ITEM ( '' )  );
#4 = EDGE_LOOP ( 'NONE', ( #305, #135, #124 ) ) ;
#5 = COORDINATED_UNIVERSAL_TIME_OFFSET ( 8, 0, .AHEAD. ) ;
#6 = EDGE_CURVE ( 'NONE', #1, #143, #237, .T. ) ;
#7 = AXIS2_PLACEMENT_3D ( 'NONE', #285, #220, #258 ) ;
#8 = PRODUCT_DEFINITION_SHAPE ( 'NONE', 'NONE',  #111 ) ;
#9 = CC_DESIGN_DATE_AND_TIME_ASSIGNMENT ( #58, #151, ( #111 ) ) ;
#10 = ORIENTED_EDGE ( 'NONE', *, *, #6, .F. ) ;
#11 = PERSON_AND_ORGANIZATION ( #240, #160 ) ;
#12 = PERSON_AND_ORGANIZATION ( #240, #160 ) ;
#13 = AXIS2_PLACEMENT_3D ( 'NONE', #213, #292, #183 ) ;
#14 = CARTESIAN_POINT ( 'NONE',  ( -3.750000000000009300, -6.495190528383290000, 5.997800571795955300 ) ) ;
#15 = CARTESIAN_POINT ( 'NONE',  ( 7.500000000000001800, -6.495190528383294500, -1.955498570510079100 ) ) ;
#16 = LOCAL_TIME ( 16, 3, 53.00000000000000000, #83 ) ;
#17 = PERSON_AND_ORGANIZATION_ROLE ( 'classification_officer' ) ;
#18 = CARTESIAN_POINT ( 'NONE',  ( 0.0000000000000000000, 0.0000000000000000000, 0.0000000000000000000 ) ) ;
#19 = CC_DESIGN_PERSON_AND_ORGANIZATION_ASSIGNMENT ( #229, #154, ( #296 ) ) ;
#20 = APPLICATION_PROTOCOL_DEFINITION ( 'international standard', 'config_control_design', 1994, #286 ) ;
#21 = ORIENTED_EDGE ( 'NONE', *, *, #299, .T. ) ;
#22 = CALENDAR_DATE ( 2019, 24, 7 ) ;
#23 = APPROVAL_STATUS ( 'not_yet_approved' ) ;
#24 = PERSON_AND_ORGANIZATION ( #240, #160 ) ;
#25 = APPROVAL_STATUS ( 'not_yet_approved' ) ;
#26 = CIRCLE ( 'NONE', #121, 7.500000000000000000 ) ;
#27 = EDGE_CURVE ( 'NONE', #86, #1, #3, .T. ) ;
#28 = VERTEX_POINT ( 'NONE', #206 ) ;
#29 = APPROVAL ( #308, 'Î´Ö¸¶¨' ) ;
#30 = UNCERTAINTY_MEASURE_WITH_UNIT (LENGTH_MEASURE( 1.000000000000000100E-005 ), #188, 'distance_accuracy_value', 'NONE');
#31 = CALENDAR_DATE ( 2019, 24, 7 ) ;
#32 = CYLINDRICAL_SURFACE ( 'NONE', #112, 7.500000000000000000 ) ;
#33 = CARTESIAN_POINT ( 'NONE',  ( 7.500000000000000000, 9.184850993605147900E-016, 11.30000000000000100 ) ) ;
#34 = ORIENTED_EDGE ( 'NONE', *, *, #299, .F. ) ;
#35 = LOCAL_TIME ( 16, 3, 53.00000000000000000, #225 ) ;
#36 = ADVANCED_FACE ( 'NONE', ( #66 ), #52, .T. ) ;
#37 = CC_DESIGN_APPROVAL ( #29, ( #70 ) ) ;
#38 = EDGE_CURVE ( 'NONE', #106, #177, #102, .T. ) ;
#39 =( NAMED_UNIT ( * ) SI_UNIT ( $, .STERADIAN. ) SOLID_ANGLE_UNIT ( ) );
#40 = DIRECTION ( 'NONE',  ( -0.8165531063768113300, -6.700516975249052500E-017, 0.5772703218305785800 ) ) ;
#41 = CC_DESIGN_PERSON_AND_ORGANIZATION_ASSIGNMENT ( #11, #195, ( #70 ) ) ;
#42 = EDGE_LOOP ( 'NONE', ( #95, #208, #10, #271 ) ) ;
#43 = DATE_AND_TIME ( #22, #259 ) ;
#44 = APPLICATION_PROTOCOL_DEFINITION ( 'international standard', 'config_control_design', 1994, #119 ) ;
#45 = PERSON_AND_ORGANIZATION_ROLE ( 'creator' ) ;
#46 = APPROVAL_ROLE ( '' ) ;
#47 = SECURITY_CLASSIFICATION_LEVEL ( 'unclassified' ) ;
#48 = APPROVAL_STATUS ( 'not_yet_approved' ) ;
#49 = CC_DESIGN_PERSON_AND_ORGANIZATION_ASSIGNMENT ( #128, #45, ( #111 ) ) ;
#50 = DESIGN_CONTEXT ( 'detailed design', #235, 'design' ) ;
#51 = PERSON_AND_ORGANIZATION ( #240, #160 ) ;
#52 = CYLINDRICAL_SURFACE ( 'NONE', #270, 7.500000000000000000 ) ;
#53 = CC_DESIGN_DATE_AND_TIME_ASSIGNMENT ( #122, #169, ( #296 ) ) ;
#54 = EDGE_CURVE ( 'NONE', #126, #177, #196, .T. ) ;
#55 = DIRECTION ( 'NONE',  ( -0.0000000000000000000, -0.0000000000000000000, -1.000000000000000000 ) ) ;
#56 = APPROVAL ( #48, 'Î´Ö¸¶¨' ) ;
#57 = CALENDAR_DATE ( 2019, 24, 7 ) ;
#58 = DATE_AND_TIME ( #202, #97 ) ;
#59 = MANIFOLD_SOLID_BREP ( 'ÇÐ³ý-À­Éì3', #215 ) ;
#60 = ORIENTED_EDGE ( 'NONE', *, *, #250, .T. ) ;
#61 = CARTESIAN_POINT ( 'NONE',  ( -7.500000000000000000, 0.0000000000000000000, 0.0000000000000000000 ) ) ;
#62 = COORDINATED_UNIVERSAL_TIME_OFFSET ( 8, 0, .AHEAD. ) ;
#63 =( NAMED_UNIT ( * ) PLANE_ANGLE_UNIT ( ) SI_UNIT ( $, .RADIAN. ) );
#64 = DESIGN_CONTEXT ( 'detailed design', #194, 'design' ) ;
#65 = CARTESIAN_POINT ( 'NONE',  ( 0.0000000000000000000, 0.0000000000000000000, 0.0000000000000000000 ) ) ;
#66 = FACE_OUTER_BOUND ( 'NONE', #72, .T. ) ;
#67 = DIRECTION ( 'NONE',  ( 1.000000000000000000, 0.0000000000000000000, -0.0000000000000000000 ) ) ;
#68 = LOCAL_TIME ( 16, 3, 53.00000000000000000, #307 ) ;
#69 = DIRECTION ( 'NONE',  ( 0.4082765531884055600, 0.7071557336614138200, 0.5772703218305808000 ) ) ;
#70 = PRODUCT_DEFINITION_FORMATION_WITH_SPECIFIED_SOURCE ( 'ÈÎºÎ', '', #156, .NOT_KNOWN. ) ;
#71 = DIRECTION ( 'NONE',  ( 1.000000000000000000, 0.0000000000000000000, 0.0000000000000000000 ) ) ;
#72 = EDGE_LOOP ( 'NONE', ( #199, #310, #60, #245, #82 ) ) ;
#73 = MECHANICAL_CONTEXT ( 'NONE', #119, 'mechanical' ) ;
#74 = APPROVAL_DATE_TIME ( #137, #155 ) ;
#75 = LINE ( 'NONE', #186, #81 ) ;
#76 = EDGE_LOOP ( 'NONE', ( #242, #289, #21, #255, #203 ) ) ;
#77 = CC_DESIGN_PERSON_AND_ORGANIZATION_ASSIGNMENT ( #248, #221, ( #92 ) ) ;
#78 = DATE_AND_TIME ( #193, #68 ) ;
#79 = LOCAL_TIME ( 16, 3, 53.00000000000000000, #152 ) ;
#80 = LOCAL_TIME ( 16, 3, 53.00000000000000000, #5 ) ;
#81 = VECTOR ( 'NONE', #69, 1000.000000000000100 ) ;
#82 = ORIENTED_EDGE ( 'NONE', *, *, #38, .T. ) ;
#83 = COORDINATED_UNIVERSAL_TIME_OFFSET ( 8, 0, .AHEAD. ) ;
#84 = CARTESIAN_POINT ( 'NONE',  ( -3.750000000000007500, 6.495190528383279400, 5.997800571795953500 ) ) ;
#85 = PRODUCT_DEFINITION_FORMATION_WITH_SPECIFIED_SOURCE ( 'ÈÎºÎ', '', #312, .NOT_KNOWN. ) ;
#86 = VERTEX_POINT ( 'NONE', #297 ) ;
#87 = APPROVAL_PERSON_ORGANIZATION ( #178, #207, #223 ) ;
#88 = PERSON_AND_ORGANIZATION ( #240, #160 ) ;
#89 = CARTESIAN_POINT ( 'NONE',  ( -7.500000000000000000, 0.0000000000000000000, 0.6956011435919322600 ) ) ;
#90 = LINE ( 'NONE', #291, #260 ) ;
#91 = CARTESIAN_POINT ( 'NONE',  ( -6.127404735808356800, -5.122595264191639700, 2.636340830245931200 ) ) ;
#92 = SECURITY_CLASSIFICATION ( '', '', #47 ) ;
#93 = CARTESIAN_POINT ( 'NONE',  ( 0.0000000000000000000, 0.0000000000000000000, 11.30000000000000100 ) ) ;
#94 = PERSON_AND_ORGANIZATION_ROLE ( 'design_owner' ) ;
#95 = ORIENTED_EDGE ( 'NONE', *, *, #250, .F. ) ;
#96 = CALENDAR_DATE ( 2019, 24, 7 ) ;
#97 = LOCAL_TIME ( 16, 3, 53.00000000000000000, #62 ) ;
#98 = MECHANICAL_CONTEXT ( 'NONE', #286, 'mechanical' ) ;
#99 = PERSON_AND_ORGANIZATION_ROLE ( 'design_owner' ) ;
#100 = ORIENTED_EDGE ( 'NONE', *, *, #38, .F. ) ;
#101 = LOCAL_TIME ( 16, 3, 53.00000000000000000, #294 ) ;
#102 = CIRCLE ( 'NONE', #13, 7.500000000000000000 ) ;
#103 = CC_DESIGN_APPROVAL ( #56, ( #85 ) ) ;
#104 = AXIS2_PLACEMENT_3D ( 'NONE', #170, #278, #110 ) ;
#105 = CC_DESIGN_PERSON_AND_ORGANIZATION_ASSIGNMENT ( #181, #117, ( #85 ) ) ;
#106 = VERTEX_POINT ( 'NONE', #61 ) ;
#107 = CARTESIAN_POINT ( 'NONE',  ( 0.0000000000000000000, 0.0000000000000000000, 11.30000000000000100 ) ) ;
#108 = FACE_OUTER_BOUND ( 'NONE', #4, .T. ) ;
#109 = CARTESIAN_POINT ( 'NONE',  ( -7.500000000000000000, 2.745190528383284300, 0.6956011435919322600 ) ) ;
#110 = DIRECTION ( 'NONE',  ( 0.0000000000000000000, 0.6325343505460016000, 0.7745323075116673500 ) ) ;
#111 = PRODUCT_DEFINITION ( 'Î´Öª', '', #70, #64 ) ;
#112 = AXIS2_PLACEMENT_3D ( 'NONE', #93, #149, #141 ) ;
#113 = CARTESIAN_POINT ( 'NONE',  ( 0.0000000000000000000, -24.50000000000000000, 11.30000000000000100 ) ) ;
#114 = LOCAL_TIME ( 16, 3, 53.00000000000000000, #165 ) ;
#115 = CARTESIAN_POINT ( 'NONE',  ( 1.874999999999995800, -9.742785792574940400, -1.955498570510095800 ) ) ;
#116 = VECTOR ( 'NONE', #129, 1000.000000000000000 ) ;
#117 = PERSON_AND_ORGANIZATION_ROLE ( 'creator' ) ;
#118 = CC_DESIGN_PERSON_AND_ORGANIZATION_ASSIGNMENT ( #51, #17, ( #164 ) ) ;
#119 = APPLICATION_CONTEXT ( 'configuration controlled 3d designs of mechanical parts and assemblies' ) ;
#120 = SECURITY_CLASSIFICATION_LEVEL ( 'unclassified' ) ;
#121 = AXIS2_PLACEMENT_3D ( 'NONE', #65, #216, #185 ) ;
#122 = DATE_AND_TIME ( #96, #114 ) ;
#123 = CC_DESIGN_SECURITY_CLASSIFICATION ( #164, ( #85 ) ) ;
#124 = ORIENTED_EDGE ( 'NONE', *, *, #6, .T. ) ;
#125 = APPROVAL_PERSON_ORGANIZATION ( #263, #29, #172 ) ;
#126 = VERTEX_POINT ( 'NONE', #228 ) ;
#127 = AXIS2_PLACEMENT_3D ( 'NONE', #231, #232, #71 ) ;
#128 = PERSON_AND_ORGANIZATION ( #240, #160 ) ;
#129 = DIRECTION ( 'NONE',  ( -0.0000000000000000000, -0.0000000000000000000, -1.000000000000000000 ) ) ;
#130 = VECTOR ( 'NONE', #133, 1000.000000000000100 ) ;
#131 = DIRECTION ( 'NONE',  ( 0.4082200218682777700, 0.7070578185427395200, 0.5774302165486711000 ) ) ;
#132 = APPROVAL_PERSON_ORGANIZATION ( #198, #247, #46 ) ;
#133 = DIRECTION ( 'NONE',  ( 0.4082765531884057800, -0.7071557336614134900, 0.5772703218305811300 ) ) ;
#134 = CC_DESIGN_APPROVAL ( #158, ( #296 ) ) ;
#135 = ORIENTED_EDGE ( 'NONE', *, *, #187, .T. ) ;
#136 = FACE_OUTER_BOUND ( 'NONE', #42, .T. ) ;
#137 = DATE_AND_TIME ( #261, #80 ) ;
#138 = DIRECTION ( 'NONE',  ( 0.8164400437365592100, 0.0000000000000000000, -0.5774302165486713300 ) ) ;
#139 = ADVANCED_FACE ( 'NONE', ( #108 ), #180, .T. ) ;
#140 = FACE_OUTER_BOUND ( 'NONE', #262, .T. ) ;
#141 = DIRECTION ( 'NONE',  ( -1.000000000000000000, 0.0000000000000000000, 0.0000000000000000000 ) ) ;
#142 = CARTESIAN_POINT ( 'NONE',  ( 7.500000000000003600, -1.900733508943148300E-016, 5.997800571795984600 ) ) ;
#143 = VERTEX_POINT ( 'NONE', #182 ) ;
#144 = DIRECTION ( 'NONE',  ( -0.0000000000000000000, -0.0000000000000000000, -1.000000000000000000 ) ) ;
#145 =( GEOMETRIC_REPRESENTATION_CONTEXT ( 3 ) GLOBAL_UNCERTAINTY_ASSIGNED_CONTEXT ( ( #30 ) ) GLOBAL_UNIT_ASSIGNED_CONTEXT ( ( #188, #63, #39 ) ) REPRESENTATION_CONTEXT ( 'NONE', 'WORKASPACE' ) );
#146 = DATE_TIME_ROLE ( 'classification_date' ) ;
#147 = CC_DESIGN_APPROVAL ( #247, ( #92 ) ) ;
#148 = PERSON_AND_ORGANIZATION ( #240, #160 ) ;
#149 = DIRECTION ( 'NONE',  ( -0.0000000000000000000, -0.0000000000000000000, -1.000000000000000000 ) ) ;
#150 =( BOUNDED_CURVE ( )  B_SPLINE_CURVE ( 3, ( #306, #15, #115, #252 ),
 .UNSPECIFIED., .F., .F. ) 
 B_SPLINE_CURVE_WITH_KNOTS ( ( 4, 4 ),
 ( 5.235987755982986200, 7.330382858376182800 ),
 .UNSPECIFIED. ) 
 CURVE ( )  GEOMETRIC_REPRESENTATION_ITEM ( )  RATIONAL_B_SPLINE_CURVE ( ( 1.000000000000000000, 0.6666666666666663000, 0.6666666666666663000, 1.000000000000000000 ) ) 
 REPRESENTATION_ITEM ( '' )  );
#151 = DATE_TIME_ROLE ( 'creation_date' ) ;
#152 = COORDINATED_UNIVERSAL_TIME_OFFSET ( 8, 0, .AHEAD. ) ;
#153 = APPLICATION_PROTOCOL_DEFINITION ( 'international standard', 'config_control_design', 1994, #194 ) ;
#154 = PERSON_AND_ORGANIZATION_ROLE ( 'creator' ) ;
#155 = APPROVAL ( #309, 'Î´Ö¸¶¨' ) ;
#156 = PRODUCT ( '371502', '371502', '', ( #98 ) ) ;
#157 = PERSON_AND_ORGANIZATION ( #240, #160 ) ;
#158 = APPROVAL ( #23, 'Î´Ö¸¶¨' ) ;
#159 = DATE_AND_TIME ( #277, #251 ) ;
#160 = ORGANIZATION ( 'Î´Ö¸¶¨', 'Î´Ö¸¶¨', '' ) ;
#161 = EDGE_CURVE ( 'NONE', #126, #143, #90, .T. ) ;
#162 = CC_DESIGN_APPROVAL ( #155, ( #111 ) ) ;
#163 = DIRECTION ( 'NONE',  ( 0.0000000000000000000, -0.6325343505460012700, 0.7745323075116675700 ) ) ;
#164 = SECURITY_CLASSIFICATION ( '', '', #120 ) ;
#165 = COORDINATED_UNIVERSAL_TIME_OFFSET ( 8, 0, .AHEAD. ) ;
#166 = SHAPE_DEFINITION_REPRESENTATION ( #227, #282 ) ;
#167 = DIRECTION ( 'NONE',  ( 0.0000000000000000000, 0.0000000000000000000, 1.000000000000000000 ) ) ;
#168 = DIRECTION ( 'NONE',  ( -0.5774302165486712200, 0.0000000000000000000, -0.8164400437365591000 ) ) ;
#169 = DATE_TIME_ROLE ( 'creation_date' ) ;
#170 = CARTESIAN_POINT ( 'NONE',  ( 11.69134295108994500, 6.749999999999978700, 11.30000000000000100 ) ) ;
#171 = APPROVAL_PERSON_ORGANIZATION ( #157, #56, #222 ) ;
#172 = APPROVAL_ROLE ( '' ) ;
#173 = CC_DESIGN_DATE_AND_TIME_ASSIGNMENT ( #234, #146, ( #164 ) ) ;
#174 = APPLICATION_PROTOCOL_DEFINITION ( 'international standard', 'config_control_design', 1994, #235 ) ;
#175 = AXIS2_PLACEMENT_3D ( 'NONE', #244, #131, #163 ) ;
#176 = CC_DESIGN_PERSON_AND_ORGANIZATION_ASSIGNMENT ( #12, #99, ( #312 ) ) ;
#177 = VERTEX_POINT ( 'NONE', #295 ) ;
#178 = PERSON_AND_ORGANIZATION ( #240, #160 ) ;
#179 = ADVANCED_FACE ( 'NONE', ( #136 ), #280, .F. ) ;
#180 = PLANE ( 'NONE',  #175 ) ;
#181 = PERSON_AND_ORGANIZATION ( #240, #160 ) ;
#182 = CARTESIAN_POINT ( 'NONE',  ( -2.602085213965210600E-015, -1.270118002779560700E-015, 11.30000000000000100 ) ) ;
#183 = DIRECTION ( 'NONE',  ( 1.000000000000000000, 0.0000000000000000000, 0.0000000000000000000 ) ) ;
#184 = CARTESIAN_POINT ( 'NONE',  ( 7.073520084914156000, -12.25169617543019700, 21.30139043989909500 ) ) ;
#185 = DIRECTION ( 'NONE',  ( 1.000000000000000000, 0.0000000000000000000, 0.0000000000000000000 ) ) ;
#186 = CARTESIAN_POINT ( 'NONE',  ( -7.073520084914156000, -12.25169617543020800, 1.298609560100911100 ) ) ;
#187 = EDGE_CURVE ( 'NONE', #126, #1, #197, .T. ) ;
#188 =( LENGTH_UNIT ( ) NAMED_UNIT ( * ) SI_UNIT ( .MILLI., .METRE. ) );
#189 = APPROVAL_DATE_TIME ( #218, #247 ) ;
#190 = APPROVAL_STATUS ( 'not_yet_approved' ) ;
#191 = CC_DESIGN_PERSON_AND_ORGANIZATION_ASSIGNMENT ( #290, #287, ( #85 ) ) ;
#192 = PLANE ( 'NONE',  #104 ) ;
#193 = CALENDAR_DATE ( 2019, 24, 7 ) ;
#194 = APPLICATION_CONTEXT ( 'configuration controlled 3d designs of mechanical parts and assemblies' ) ;
#195 = PERSON_AND_ORGANIZATION_ROLE ( 'creator' ) ;
#196 = LINE ( 'NONE', #33, #116 ) ;
#197 =( BOUNDED_CURVE ( )  B_SPLINE_CURVE ( 3, ( #142, #301, #254, #230 ),
 .UNSPECIFIED., .F., .F. ) 
 B_SPLINE_CURVE_WITH_KNOTS ( ( 4, 4 ),
 ( 5.235987755982986200, 7.330382858376182800 ),
 .UNSPECIFIED. ) 
 CURVE ( )  GEOMETRIC_REPRESENTATION_ITEM ( )  RATIONAL_B_SPLINE_CURVE ( ( 1.000000000000000000, 0.6666666666666663000, 0.6666666666666663000, 1.000000000000000000 ) ) 
 REPRESENTATION_ITEM ( '' )  );
#198 = PERSON_AND_ORGANIZATION ( #240, #160 ) ;
#199 = ORIENTED_EDGE ( 'NONE', *, *, #54, .F. ) ;
#200 = PERSON_AND_ORGANIZATION ( #240, #160 ) ;
#201 = COORDINATED_UNIVERSAL_TIME_OFFSET ( 8, 0, .AHEAD. ) ;
#202 = CALENDAR_DATE ( 2019, 24, 7 ) ;
#203 = ORIENTED_EDGE ( 'NONE', *, *, #27, .T. ) ;
#204 = CARTESIAN_POINT ( 'NONE',  ( -7.500000000000000000, 0.0000000000000000000, 0.6956011435919322600 ) ) ;
#205 = CALENDAR_DATE ( 2019, 24, 7 ) ;
#206 = CARTESIAN_POINT ( 'NONE',  ( -3.750000000000009300, -6.495190528383290000, 5.997800571795955300 ) ) ;
#207 = APPROVAL ( #190, 'Î´Ö¸¶¨' ) ;
#208 = ORIENTED_EDGE ( 'NONE', *, *, #288, .T. ) ;
#209 = DATE_AND_TIME ( #57, #35 ) ;
#210 = FACE_OUTER_BOUND ( 'NONE', #293, .T. ) ;
#211 = CARTESIAN_POINT ( 'NONE',  ( -6.127404735808360300, 5.122595264191636100, 2.636340830245926400 ) ) ;
#212 = APPROVAL_PERSON_ORGANIZATION ( #24, #155, #257 ) ;
#213 = CARTESIAN_POINT ( 'NONE',  ( 0.0000000000000000000, 0.0000000000000000000, 0.0000000000000000000 ) ) ;
#214 = AXIS2_PLACEMENT_3D ( 'NONE', #113, #138, #168 ) ;
#215 = CLOSED_SHELL ( 'NONE', ( #243, #36, #179, #272, #139, #249 ) ) ;
#216 = DIRECTION ( 'NONE',  ( 0.0000000000000000000, 0.0000000000000000000, 1.000000000000000000 ) ) ;
#217 = PLANE ( 'NONE',  #226 ) ;
#218 = DATE_AND_TIME ( #284, #79 ) ;
#219 = VECTOR ( 'NONE', #144, 1000.000000000000000 ) ;
#220 = DIRECTION ( 'NONE',  ( 0.0000000000000000000, 0.0000000000000000000, 1.000000000000000000 ) ) ;
#221 = PERSON_AND_ORGANIZATION_ROLE ( 'classification_officer' ) ;
#222 = APPROVAL_ROLE ( '' ) ;
#223 = APPROVAL_ROLE ( '' ) ;
#224 = CC_DESIGN_PERSON_AND_ORGANIZATION_ASSIGNMENT ( #148, #304, ( #70 ) ) ;
#225 = COORDINATED_UNIVERSAL_TIME_OFFSET ( 8, 0, .AHEAD. ) ;
#226 = AXIS2_PLACEMENT_3D ( 'NONE', #18, #167, #67 ) ;
#227 = PRODUCT_DEFINITION_SHAPE ( 'NONE', 'NONE',  #296 ) ;
#228 = CARTESIAN_POINT ( 'NONE',  ( 7.500000000000003600, -1.900733508943148300E-016, 5.997800571795984600 ) ) ;
#229 = PERSON_AND_ORGANIZATION ( #240, #160 ) ;
#230 = CARTESIAN_POINT ( 'NONE',  ( -3.750000000000007500, 6.495190528383279400, 5.997800571795953500 ) ) ;
#231 = CARTESIAN_POINT ( 'NONE',  ( 0.0000000000000000000, 0.0000000000000000000, 0.0000000000000000000 ) ) ;
#232 = DIRECTION ( 'NONE',  ( 0.0000000000000000000, 0.0000000000000000000, 1.000000000000000000 ) ) ;
#233 = ORIENTED_EDGE ( 'NONE', *, *, #288, .F. ) ;
#234 = DATE_AND_TIME ( #31, #101 ) ;
#235 = APPLICATION_CONTEXT ( 'configuration controlled 3d designs of mechanical parts and assemblies' ) ;
#236 = CC_DESIGN_DATE_AND_TIME_ASSIGNMENT ( #256, #238, ( #92 ) ) ;
#237 = LINE ( 'NONE', #184, #130 ) ;
#238 = DATE_TIME_ROLE ( 'classification_date' ) ;
#239 = PRODUCT_RELATED_PRODUCT_CATEGORY ( 'detail', '', ( #312 ) ) ;
#240 = PERSON ( 'Î´Ö¸¶¨', 'Î´Ö¸¶¨', 'Î´Ö¸¶¨', ('Î´Ö¸¶¨'), ('Î´Ö¸¶¨'), ('Î´Ö¸¶¨') ) ;
#241 = COORDINATED_UNIVERSAL_TIME_OFFSET ( 8, 0, .AHEAD. ) ;
#242 = ORIENTED_EDGE ( 'NONE', *, *, #187, .F. ) ;
#243 = ADVANCED_FACE ( 'NONE', ( #267 ), #32, .T. ) ;
#244 = CARTESIAN_POINT ( 'NONE',  ( 14.72243186433548900, -8.499999999999966200, 11.30000000000000100 ) ) ;
#245 = ORIENTED_EDGE ( 'NONE', *, *, #253, .T. ) ;
#246 =( BOUNDED_CURVE ( )  B_SPLINE_CURVE ( 3, ( #14, #91, #298, #89 ),
 .UNSPECIFIED., .F., .F. ) 
 B_SPLINE_CURVE_WITH_KNOTS ( ( 4, 4 ),
 ( 5.235987755982989700, 6.283185307179586200 ),
 .UNSPECIFIED. ) 
 CURVE ( )  GEOMETRIC_REPRESENTATION_ITEM ( )  RATIONAL_B_SPLINE_CURVE ( ( 1.000000000000000000, 0.9106836025229592100, 0.9106836025229592100, 1.000000000000000000 ) ) 
 REPRESENTATION_ITEM ( '' )  );
#247 = APPROVAL ( #25, 'Î´Ö¸¶¨' ) ;
#248 = PERSON_AND_ORGANIZATION ( #240, #160 ) ;
#249 = ADVANCED_FACE ( 'NONE', ( #210 ), #192, .F. ) ;
#250 = EDGE_CURVE ( 'NONE', #28, #86, #246, .T. ) ;
#251 = LOCAL_TIME ( 16, 3, 53.00000000000000000, #201 ) ;
#252 = CARTESIAN_POINT ( 'NONE',  ( -3.750000000000009300, -6.495190528383290000, 5.997800571795955300 ) ) ;
#253 = EDGE_CURVE ( 'NONE', #86, #106, #276, .T. ) ;
#254 = CARTESIAN_POINT ( 'NONE',  ( 1.874999999999991300, 9.742785792574942100, -1.955498570510106700 ) ) ;
#255 = ORIENTED_EDGE ( 'NONE', *, *, #253, .F. ) ;
#256 = DATE_AND_TIME ( #205, #16 ) ;
#257 = APPROVAL_ROLE ( '' ) ;
#258 = DIRECTION ( 'NONE',  ( 1.000000000000000000, 0.0000000000000000000, 0.0000000000000000000 ) ) ;
#259 = LOCAL_TIME ( 16, 3, 53.00000000000000000, #241 ) ;
#260 = VECTOR ( 'NONE', #40, 1000.000000000000000 ) ;
#261 = CALENDAR_DATE ( 2019, 24, 7 ) ;
#262 = EDGE_LOOP ( 'NONE', ( #100, #34 ) ) ;
#263 = PERSON_AND_ORGANIZATION ( #240, #160 ) ;
#264 = CC_DESIGN_SECURITY_CLASSIFICATION ( #92, ( #70 ) ) ;
#265 = ORIENTED_EDGE ( 'NONE', *, *, #161, .T. ) ;
#266 = APPROVAL_DATE_TIME ( #43, #158 ) ;
#267 = FACE_OUTER_BOUND ( 'NONE', #76, .T. ) ;
#268 = APPROVAL_DATE_TIME ( #159, #207 ) ;
#269 = EDGE_CURVE ( 'NONE', #126, #28, #150, .T. ) ;
#270 = AXIS2_PLACEMENT_3D ( 'NONE', #107, #55, #273 ) ;
#271 = ORIENTED_EDGE ( 'NONE', *, *, #27, .F. ) ;
#272 = ADVANCED_FACE ( 'NONE', ( #140 ), #217, .F. ) ;
#273 = DIRECTION ( 'NONE',  ( -1.000000000000000000, 0.0000000000000000000, 0.0000000000000000000 ) ) ;
#274 = CARTESIAN_POINT ( 'NONE',  ( -3.750000000000007500, 6.495190528383279400, 5.997800571795953500 ) ) ;
#275 = APPROVAL_DATE_TIME ( #209, #56 ) ;
#276 = LINE ( 'NONE', #279, #219 ) ;
#277 = CALENDAR_DATE ( 2019, 24, 7 ) ;
#278 = DIRECTION ( 'NONE',  ( -0.4082200218682780500, 0.7070578185427393000, -0.5774302165486714400 ) ) ;
#279 = CARTESIAN_POINT ( 'NONE',  ( -7.500000000000000000, 0.0000000000000000000, 11.30000000000000100 ) ) ;
#280 = PLANE ( 'NONE',  #214 ) ;
#281 = PRODUCT_RELATED_PRODUCT_CATEGORY ( 'detail', '', ( #156 ) ) ;
#282 = ADVANCED_BREP_SHAPE_REPRESENTATION ( '371502', ( #59, #127 ), #145 ) ;
#283 = ORIENTED_EDGE ( 'NONE', *, *, #269, .F. ) ;
#284 = CALENDAR_DATE ( 2019, 24, 7 ) ;
#285 = CARTESIAN_POINT ( 'NONE',  ( 0.0000000000000000000, 0.0000000000000000000, 0.0000000000000000000 ) ) ;
#286 = APPLICATION_CONTEXT ( 'configuration controlled 3d designs of mechanical parts and assemblies' ) ;
#287 = PERSON_AND_ORGANIZATION_ROLE ( 'design_supplier' ) ;
#288 = EDGE_CURVE ( 'NONE', #28, #143, #75, .T. ) ;
#289 = ORIENTED_EDGE ( 'NONE', *, *, #54, .T. ) ;
#290 = PERSON_AND_ORGANIZATION ( #240, #160 ) ;
#291 = CARTESIAN_POINT ( 'NONE',  ( 9.816313587227854900, 0.0000000000000000000, 4.360259694763891000 ) ) ;
#292 = DIRECTION ( 'NONE',  ( 0.0000000000000000000, 0.0000000000000000000, 1.000000000000000000 ) ) ;
#293 = EDGE_LOOP ( 'NONE', ( #265, #233, #283 ) ) ;
#294 = COORDINATED_UNIVERSAL_TIME_OFFSET ( 8, 0, .AHEAD. ) ;
#295 = CARTESIAN_POINT ( 'NONE',  ( 7.500000000000000000, 9.184850993605147900E-016, 0.0000000000000000000 ) ) ;
#296 = PRODUCT_DEFINITION ( 'Î´Öª', '', #85, #50 ) ;
#297 = CARTESIAN_POINT ( 'NONE',  ( -7.500000000000000000, 0.0000000000000000000, 0.6956011435919322600 ) ) ;
#298 = CARTESIAN_POINT ( 'NONE',  ( -7.500000000000000900, -2.745190528383286000, 0.6956011435919324800 ) ) ;
#299 = EDGE_CURVE ( 'NONE', #177, #106, #26, .T. ) ;
#300 = CC_DESIGN_PERSON_AND_ORGANIZATION_ASSIGNMENT ( #88, #94, ( #156 ) ) ;
#301 = CARTESIAN_POINT ( 'NONE',  ( 7.500000000000001800, 6.495190528383298000, -1.955498570510088700 ) ) ;
#302 = CC_DESIGN_APPROVAL ( #207, ( #164 ) ) ;
#303 = APPROVAL_PERSON_ORGANIZATION ( #200, #158, #311 ) ;
#304 = PERSON_AND_ORGANIZATION_ROLE ( 'design_supplier' ) ;
#305 = ORIENTED_EDGE ( 'NONE', *, *, #161, .F. ) ;
#306 = CARTESIAN_POINT ( 'NONE',  ( 7.500000000000003600, -1.900733508943148300E-016, 5.997800571795984600 ) ) ;
#307 = COORDINATED_UNIVERSAL_TIME_OFFSET ( 8, 0, .AHEAD. ) ;
#308 = APPROVAL_STATUS ( 'not_yet_approved' ) ;
#309 = APPROVAL_STATUS ( 'not_yet_approved' ) ;
#310 = ORIENTED_EDGE ( 'NONE', *, *, #269, .T. ) ;
#311 = APPROVAL_ROLE ( '' ) ;
#312 = PRODUCT ( '371502', '371502', '', ( #73 ) ) ;
ENDSEC;
END-ISO-10303-21;
