ISO-10303-21;
HEADER;
FILE_DESCRIPTION (( 'STEP AP203' ),
    '1' );
FILE_NAME ('371508.STEP',
    '2019-07-25T01:52:41',
    ( '' ),
    ( '' ),
    'SwSTEP 2.0',
    'SolidWorks 2016',
    '' );
FILE_SCHEMA (( 'CONFIG_CONTROL_DESIGN' ));
ENDSEC;

DATA;
#1 = CC_DESIGN_DATE_AND_TIME_ASSIGNMENT ( #109, #281, ( #195 ) ) ;
#2 = VERTEX_POINT ( 'NONE', #170 ) ;
#3 = PERSON_AND_ORGANIZATION_ROLE ( 'design_owner' ) ;
#4 = CARTESIAN_POINT ( 'NONE',  ( -3.469446951953614200E-015, -4.420505172018915700E-015, 47.89999999999999900 ) ) ;
#5 = MANIFOLD_SOLID_BREP ( 'ÇÐ³ý-À­Éì3', #84 ) ;
#6 = DIRECTION ( 'NONE',  ( -0.0000000000000000000, -0.0000000000000000000, -1.000000000000000000 ) ) ;
#7 = LINE ( 'NONE', #50, #115 ) ;
#8 = APPROVAL ( #263, 'Î´Ö¸¶¨' ) ;
#9 = PERSON_AND_ORGANIZATION ( #57, #77 ) ;
#10 = EDGE_LOOP ( 'NONE', ( #199, #216, #69, #189, #287 ) ) ;
#11 = CC_DESIGN_PERSON_AND_ORGANIZATION_ASSIGNMENT ( #220, #3, ( #12 ) ) ;
#12 = PRODUCT ( '371508', '371508', '', ( #71 ) ) ;
#13 = VERTEX_POINT ( 'NONE', #4 ) ;
#14 =( LENGTH_UNIT ( ) NAMED_UNIT ( * ) SI_UNIT ( .MILLI., .METRE. ) );
#15 = LOCAL_TIME ( 9, 52, 41.00000000000000000, #305 ) ;
#16 = CYLINDRICAL_SURFACE ( 'NONE', #141, 31.10000000000000100 ) ;
#17 = APPROVAL_PERSON_ORGANIZATION ( #162, #217, #142 ) ;
#18 = ORIENTED_EDGE ( 'NONE', *, *, #153, .T. ) ;
#19 = PERSON_AND_ORGANIZATION_ROLE ( 'classification_officer' ) ;
#20 = SECURITY_CLASSIFICATION ( '', '', #93 ) ;
#21 = ORIENTED_EDGE ( 'NONE', *, *, #153, .F. ) ;
#22 = EDGE_CURVE ( 'NONE', #209, #13, #269, .T. ) ;
#23 = CC_DESIGN_DATE_AND_TIME_ASSIGNMENT ( #227, #234, ( #55 ) ) ;
#24 = APPROVAL_STATUS ( 'not_yet_approved' ) ;
#25 = COORDINATED_UNIVERSAL_TIME_OFFSET ( 8, 0, .AHEAD. ) ;
#26 = ADVANCED_FACE ( 'NONE', ( #79 ), #267, .F. ) ;
#27 = FACE_OUTER_BOUND ( 'NONE', #261, .T. ) ;
#28 = DIRECTION ( 'NONE',  ( 0.8164400437365593200, 0.0000000000000000000, -0.5774302165486711000 ) ) ;
#29 = COORDINATED_UNIVERSAL_TIME_OFFSET ( 8, 0, .AHEAD. ) ;
#30 = ADVANCED_FACE ( 'NONE', ( #132 ), #125, .T. ) ;
#31 = CARTESIAN_POINT ( 'NONE',  ( 0.0000000000000000000, 0.0000000000000000000, 0.0000000000000000000 ) ) ;
#32 = CALENDAR_DATE ( 2019, 25, 7 ) ;
#33 = PRODUCT_DEFINITION_FORMATION_WITH_SPECIFIED_SOURCE ( 'ÈÎºÎ', '', #133, .NOT_KNOWN. ) ;
#34 = APPROVAL_PERSON_ORGANIZATION ( #39, #129, #250 ) ;
#35 = PRODUCT_RELATED_PRODUCT_CATEGORY ( 'detail', '', ( #12 ) ) ;
#36 = AXIS2_PLACEMENT_3D ( 'NONE', #124, #28, #49 ) ;
#37 = CARTESIAN_POINT ( 'NONE',  ( 0.0000000000000000000, 0.0000000000000000000, 0.0000000000000000000 ) ) ;
#38 = APPROVAL ( #24, 'Î´Ö¸¶¨' ) ;
#39 = PERSON_AND_ORGANIZATION ( #57, #77 ) ;
#40 = PERSON_AND_ORGANIZATION ( #57, #77 ) ;
#41 = APPROVAL_DATE_TIME ( #144, #217 ) ;
#42 = DIRECTION ( 'NONE',  ( 0.0000000000000000000, 0.6325343505460012700, 0.7745323075116674600 ) ) ;
#43 = CALENDAR_DATE ( 2019, 25, 7 ) ;
#44 = CARTESIAN_POINT ( 'NONE',  ( -15.55000000000003600, -26.93339005769603000, 25.91354637104721400 ) ) ;
#45 = APPROVAL_ROLE ( '' ) ;
#46 = CARTESIAN_POINT ( 'NONE',  ( -25.40830497115199900, -21.24169502884801000, 11.97469330941975600 ) ) ;
#47 = PERSON_AND_ORGANIZATION_ROLE ( 'creator' ) ;
#48 =( BOUNDED_CURVE ( )  B_SPLINE_CURVE ( 3, ( #44, #46, #291, #143 ),
 .UNSPECIFIED., .F., .F. ) 
 B_SPLINE_CURVE_WITH_KNOTS ( ( 4, 4 ),
 ( 5.235987755982989700, 6.283185307179586200 ),
 .UNSPECIFIED. ) 
 CURVE ( )  GEOMETRIC_REPRESENTATION_ITEM ( )  RATIONAL_B_SPLINE_CURVE ( ( 1.000000000000000000, 0.9106836025229592100, 0.9106836025229592100, 1.000000000000000000 ) ) 
 REPRESENTATION_ITEM ( '' )  );
#49 = DIRECTION ( 'NONE',  ( -0.5774302165486711000, 0.0000000000000000000, -0.8164400437365593200 ) ) ;
#50 = CARTESIAN_POINT ( 'NONE',  ( -31.10000000000000100, 0.0000000000000000000, 47.89999999999999900 ) ) ;
#51 = CC_DESIGN_PERSON_AND_ORGANIZATION_ASSIGNMENT ( #225, #47, ( #179 ) ) ;
#52 = APPROVAL_PERSON_ORGANIZATION ( #40, #38, #237 ) ;
#53 = ORIENTED_EDGE ( 'NONE', *, *, #63, .T. ) ;
#54 = CC_DESIGN_PERSON_AND_ORGANIZATION_ASSIGNMENT ( #294, #286, ( #33 ) ) ;
#55 = SECURITY_CLASSIFICATION ( '', '', #119 ) ;
#56 = PERSON_AND_ORGANIZATION ( #57, #77 ) ;
#57 = PERSON ( 'Î´Ö¸¶¨', 'Î´Ö¸¶¨', 'Î´Ö¸¶¨', ('Î´Ö¸¶¨'), ('Î´Ö¸¶¨'), ('Î´Ö¸¶¨') ) ;
#58 = CALENDAR_DATE ( 2019, 25, 7 ) ;
#59 = ORIENTED_EDGE ( 'NONE', *, *, #81, .F. ) ;
#60 =( NAMED_UNIT ( * ) PLANE_ANGLE_UNIT ( ) SI_UNIT ( $, .RADIAN. ) );
#61 = CARTESIAN_POINT ( 'NONE',  ( 31.10000000000000900, -26.93339005769605500, -7.066134072381834700 ) ) ;
#62 = DIRECTION ( 'NONE',  ( 0.0000000000000000000, 0.0000000000000000000, 1.000000000000000000 ) ) ;
#63 = EDGE_CURVE ( 'NONE', #209, #312, #197, .T. ) ;
#64 = PERSON_AND_ORGANIZATION_ROLE ( 'design_owner' ) ;
#65 = DATE_AND_TIME ( #107, #15 ) ;
#66 = APPLICATION_CONTEXT ( 'configuration controlled 3d designs of mechanical parts and assemblies' ) ;
#67 = VECTOR ( 'NONE', #145, 1000.000000000000200 ) ;
#68 = CARTESIAN_POINT ( 'NONE',  ( 46.33235910246752800, 26.74999999999989700, 47.89999999999999900 ) ) ;
#69 = ORIENTED_EDGE ( 'NONE', *, *, #168, .T. ) ;
#70 = APPROVAL_ROLE ( '' ) ;
#71 = MECHANICAL_CONTEXT ( 'NONE', #262, 'mechanical' ) ;
#72 =( BOUNDED_CURVE ( )  B_SPLINE_CURVE ( 3, ( #308, #61, #182, #303 ),
 .UNSPECIFIED., .F., .F. ) 
 B_SPLINE_CURVE_WITH_KNOTS ( ( 4, 4 ),
 ( 5.235987755982986200, 7.330382858376182800 ),
 .UNSPECIFIED. ) 
 CURVE ( )  GEOMETRIC_REPRESENTATION_ITEM ( )  RATIONAL_B_SPLINE_CURVE ( ( 1.000000000000000000, 0.6666666666666663000, 0.6666666666666663000, 1.000000000000000000 ) ) 
 REPRESENTATION_ITEM ( '' )  );
#73 = CC_DESIGN_PERSON_AND_ORGANIZATION_ASSIGNMENT ( #92, #96, ( #55 ) ) ;
#74 = APPROVAL_STATUS ( 'not_yet_approved' ) ;
#75 = CARTESIAN_POINT ( 'NONE',  ( -15.55000000000003100, 26.93339005769600900, 25.91354637104721800 ) ) ;
#76 = APPROVAL_DATE_TIME ( #113, #8 ) ;
#77 = ORGANIZATION ( 'Î´Ö¸¶¨', 'Î´Ö¸¶¨', '' ) ;
#78 = APPROVAL_DATE_TIME ( #100, #129 ) ;
#79 = FACE_OUTER_BOUND ( 'NONE', #95, .T. ) ;
#80 = CALENDAR_DATE ( 2019, 25, 7 ) ;
#81 = EDGE_CURVE ( 'NONE', #295, #2, #7, .T. ) ;
#82 = LINE ( 'NONE', #252, #235 ) ;
#83 = COORDINATED_UNIVERSAL_TIME_OFFSET ( 8, 0, .AHEAD. ) ;
#84 = CLOSED_SHELL ( 'NONE', ( #123, #97, #26, #213, #30, #126 ) ) ;
#85 = PRODUCT_DEFINITION_SHAPE ( 'NONE', 'NONE',  #195 ) ;
#86 = ORIENTED_EDGE ( 'NONE', *, *, #258, .T. ) ;
#87 = DIRECTION ( 'NONE',  ( -0.0000000000000000000, -0.0000000000000000000, -1.000000000000000000 ) ) ;
#88 = APPROVAL_ROLE ( '' ) ;
#89 = PRODUCT_RELATED_PRODUCT_CATEGORY ( 'detail', '', ( #133 ) ) ;
#90 = PERSON_AND_ORGANIZATION_ROLE ( 'creator' ) ;
#91 = FACE_OUTER_BOUND ( 'NONE', #184, .T. ) ;
#92 = PERSON_AND_ORGANIZATION ( #57, #77 ) ;
#93 = SECURITY_CLASSIFICATION_LEVEL ( 'unclassified' ) ;
#94 = CARTESIAN_POINT ( 'NONE',  ( 0.0000000000000000000, 0.0000000000000000000, 0.0000000000000000000 ) ) ;
#95 = EDGE_LOOP ( 'NONE', ( #244, #86, #130, #247 ) ) ;
#96 = PERSON_AND_ORGANIZATION_ROLE ( 'classification_officer' ) ;
#97 = ADVANCED_FACE ( 'NONE', ( #298 ), #16, .T. ) ;
#98 = DIRECTION ( 'NONE',  ( 0.4082765531884057200, -0.7071557336614136000, 0.5772703218305812500 ) ) ;
#99 = DIRECTION ( 'NONE',  ( -0.0000000000000000000, -0.0000000000000000000, -1.000000000000000000 ) ) ;
#100 = DATE_AND_TIME ( #43, #205 ) ;
#101 = CARTESIAN_POINT ( 'NONE',  ( 35.80067308283096800, 3.469446951953614200E-015, 22.59035888678596700 ) ) ;
#102 = AXIS2_PLACEMENT_3D ( 'NONE', #94, #283, #309 ) ;
#103 = CC_DESIGN_DATE_AND_TIME_ASSIGNMENT ( #65, #265, ( #20 ) ) ;
#104 = LOCAL_TIME ( 9, 52, 41.00000000000000000, #268 ) ;
#105 = APPROVAL_DATE_TIME ( #292, #38 ) ;
#106 = EDGE_CURVE ( 'NONE', #312, #13, #246, .T. ) ;
#107 = CALENDAR_DATE ( 2019, 25, 7 ) ;
#108 = UNCERTAINTY_MEASURE_WITH_UNIT (LENGTH_MEASURE( 1.000000000000000100E-005 ), #14, 'distance_accuracy_value', 'NONE');
#109 = DATE_AND_TIME ( #169, #177 ) ;
#110 = ORIENTED_EDGE ( 'NONE', *, *, #288, .T. ) ;
#111 = CC_DESIGN_PERSON_AND_ORGANIZATION_ASSIGNMENT ( #56, #90, ( #195 ) ) ;
#112 = CARTESIAN_POINT ( 'NONE',  ( -31.10000000000000100, 0.0000000000000000000, 3.927092742094517900 ) ) ;
#113 = DATE_AND_TIME ( #243, #221 ) ;
#114 = DIRECTION ( 'NONE',  ( 1.000000000000000000, 0.0000000000000000000, 0.0000000000000000000 ) ) ;
#115 = VECTOR ( 'NONE', #293, 1000.000000000000000 ) ;
#116 = AXIS2_PLACEMENT_3D ( 'NONE', #121, #99, #211 ) ;
#117 = EDGE_LOOP ( 'NONE', ( #241, #156, #275 ) ) ;
#118 = DIRECTION ( 'NONE',  ( -0.4082200218682779900, 0.7070578185427394100, -0.5774302165486712200 ) ) ;
#119 = SECURITY_CLASSIFICATION_LEVEL ( 'unclassified' ) ;
#120 = DATE_AND_TIME ( #154, #307 ) ;
#121 = CARTESIAN_POINT ( 'NONE',  ( 0.0000000000000000000, 0.0000000000000000000, 47.89999999999999900 ) ) ;
#122 = APPROVAL_STATUS ( 'not_yet_approved' ) ;
#123 = ADVANCED_FACE ( 'NONE', ( #27 ), #274, .T. ) ;
#124 = CARTESIAN_POINT ( 'NONE',  ( 0.0000000000000000000, -39.50000000000000000, 47.89999999999999900 ) ) ;
#125 = PLANE ( 'NONE',  #249 ) ;
#126 = ADVANCED_FACE ( 'NONE', ( #173 ), #284, .F. ) ;
#127 = LOCAL_TIME ( 9, 52, 41.00000000000000000, #29 ) ;
#128 = DIRECTION ( 'NONE',  ( 0.0000000000000000000, 0.0000000000000000000, 1.000000000000000000 ) ) ;
#129 = APPROVAL ( #157, 'Î´Ö¸¶¨' ) ;
#130 = ORIENTED_EDGE ( 'NONE', *, *, #106, .F. ) ;
#131 = LOCAL_TIME ( 9, 52, 41.00000000000000000, #25 ) ;
#132 = FACE_OUTER_BOUND ( 'NONE', #231, .T. ) ;
#133 = PRODUCT ( '371508', '371508', '', ( #285 ) ) ;
#134 = AXIS2_PLACEMENT_3D ( 'NONE', #206, #163, #229 ) ;
#135 = CARTESIAN_POINT ( 'NONE',  ( -15.55000000000003100, 26.93339005769600900, 25.91354637104721800 ) ) ;
#136 = ORIENTED_EDGE ( 'NONE', *, *, #106, .T. ) ;
#137 =( NAMED_UNIT ( * ) SI_UNIT ( $, .STERADIAN. ) SOLID_ANGLE_UNIT ( ) );
#138 = CARTESIAN_POINT ( 'NONE',  ( -15.55000000000003600, -26.93339005769603000, 25.91354637104721400 ) ) ;
#139 = COORDINATED_UNIVERSAL_TIME_OFFSET ( 8, 0, .AHEAD. ) ;
#140 = APPLICATION_CONTEXT ( 'configuration controlled 3d designs of mechanical parts and assemblies' ) ;
#141 = AXIS2_PLACEMENT_3D ( 'NONE', #190, #6, #194 ) ;
#142 = APPROVAL_ROLE ( '' ) ;
#143 = CARTESIAN_POINT ( 'NONE',  ( -31.10000000000000100, 0.0000000000000000000, 3.927092742094517900 ) ) ;
#144 = DATE_AND_TIME ( #32, #104 ) ;
#145 = DIRECTION ( 'NONE',  ( -0.8165531063768112200, -1.225163215160280000E-016, 0.5772703218305786900 ) ) ;
#146 =( BOUNDED_CURVE ( )  B_SPLINE_CURVE ( 3, ( #226, #159, #304, #183 ),
 .UNSPECIFIED., .F., .F. ) 
 B_SPLINE_CURVE_WITH_KNOTS ( ( 4, 4 ),
 ( 0.0000000000000000000, 1.047197551196596500 ),
 .UNSPECIFIED. ) 
 CURVE ( )  GEOMETRIC_REPRESENTATION_ITEM ( )  RATIONAL_B_SPLINE_CURVE ( ( 1.000000000000000000, 0.9106836025229592100, 0.9106836025229592100, 1.000000000000000000 ) ) 
 REPRESENTATION_ITEM ( '' )  );
#147 = CARTESIAN_POINT ( 'NONE',  ( 31.10000000000000100, 26.93339005769607700, -7.066134072381852400 ) ) ;
#148 = AXIS2_PLACEMENT_3D ( 'NONE', #270, #128, #296 ) ;
#149 = CC_DESIGN_APPROVAL ( #276, ( #179 ) ) ;
#150 = PLANE ( 'NONE',  #202 ) ;
#151 = CIRCLE ( 'NONE', #148, 31.10000000000000100 ) ;
#152 = ORIENTED_EDGE ( 'NONE', *, *, #22, .F. ) ;
#153 = EDGE_CURVE ( 'NONE', #178, #2, #151, .T. ) ;
#154 = CALENDAR_DATE ( 2019, 25, 7 ) ;
#155 = PERSON_AND_ORGANIZATION ( #57, #77 ) ;
#156 = ORIENTED_EDGE ( 'NONE', *, *, #258, .F. ) ;
#157 = APPROVAL_STATUS ( 'not_yet_approved' ) ;
#158 = CC_DESIGN_APPROVAL ( #129, ( #33 ) ) ;
#159 = CARTESIAN_POINT ( 'NONE',  ( -31.10000000000000900, 11.38339005769603000, 3.927092742094504100 ) ) ;
#160 = PERSON_AND_ORGANIZATION ( #57, #77 ) ;
#161 = COORDINATED_UNIVERSAL_TIME_OFFSET ( 8, 0, .AHEAD. ) ;
#162 = PERSON_AND_ORGANIZATION ( #57, #77 ) ;
#163 = DIRECTION ( 'NONE',  ( 0.0000000000000000000, 0.0000000000000000000, 1.000000000000000000 ) ) ;
#164 = CARTESIAN_POINT ( 'NONE',  ( 31.10000000000000100, 3.808651545348268500E-015, 0.0000000000000000000 ) ) ;
#165 = AXIS2_PLACEMENT_3D ( 'NONE', #37, #203, #114 ) ;
#166 = CC_DESIGN_APPROVAL ( #8, ( #20 ) ) ;
#167 = DATE_TIME_ROLE ( 'creation_date' ) ;
#168 = EDGE_CURVE ( 'NONE', #271, #295, #48, .T. ) ;
#169 = CALENDAR_DATE ( 2019, 25, 7 ) ;
#170 = CARTESIAN_POINT ( 'NONE',  ( -31.10000000000000100, 0.0000000000000000000, 0.0000000000000000000 ) ) ;
#171 = CARTESIAN_POINT ( 'NONE',  ( 31.10000000000000500, 2.764153970688419800E-015, 25.91354637104734900 ) ) ;
#172 = DIRECTION ( 'NONE',  ( 0.4082200218682778300, 0.7070578185427396400, 0.5774302165486711000 ) ) ;
#173 = FACE_OUTER_BOUND ( 'NONE', #117, .T. ) ;
#174 = LOCAL_TIME ( 9, 52, 41.00000000000000000, #248 ) ;
#175 = COORDINATED_UNIVERSAL_TIME_OFFSET ( 8, 0, .AHEAD. ) ;
#176 = PERSON_AND_ORGANIZATION ( #57, #77 ) ;
#177 = LOCAL_TIME ( 9, 52, 41.00000000000000000, #175 ) ;
#178 = VERTEX_POINT ( 'NONE', #164 ) ;
#179 = PRODUCT_DEFINITION_FORMATION_WITH_SPECIFIED_SOURCE ( 'ÈÎºÎ', '', #12, .NOT_KNOWN. ) ;
#180 = DESIGN_CONTEXT ( 'detailed design', #290, 'design' ) ;
#181 = CC_DESIGN_PERSON_AND_ORGANIZATION_ASSIGNMENT ( #176, #210, ( #179 ) ) ;
#182 = CARTESIAN_POINT ( 'NONE',  ( 7.774999999999967500, -40.40008508654408100, -7.066134072381897700 ) ) ;
#183 = CARTESIAN_POINT ( 'NONE',  ( -15.55000000000003100, 26.93339005769600900, 25.91354637104721800 ) ) ;
#184 = EDGE_LOOP ( 'NONE', ( #186, #21 ) ) ;
#185 = APPROVAL_PERSON_ORGANIZATION ( #222, #242, #88 ) ;
#186 = ORIENTED_EDGE ( 'NONE', *, *, #245, .F. ) ;
#187 = SHAPE_DEFINITION_REPRESENTATION ( #253, #255 ) ;
#188 = CC_DESIGN_PERSON_AND_ORGANIZATION_ASSIGNMENT ( #155, #278, ( #33 ) ) ;
#189 = ORIENTED_EDGE ( 'NONE', *, *, #81, .T. ) ;
#190 = CARTESIAN_POINT ( 'NONE',  ( 0.0000000000000000000, 0.0000000000000000000, 47.89999999999999900 ) ) ;
#191 = APPLICATION_PROTOCOL_DEFINITION ( 'international standard', 'config_control_design', 1994, #262 ) ;
#192 = CARTESIAN_POINT ( 'NONE',  ( 7.774999999999962200, 40.40008508654409500, -7.066134072381925300 ) ) ;
#193 = VECTOR ( 'NONE', #254, 1000.000000000000100 ) ;
#194 = DIRECTION ( 'NONE',  ( -1.000000000000000000, 0.0000000000000000000, 0.0000000000000000000 ) ) ;
#195 = PRODUCT_DEFINITION ( 'Î´Öª', '', #33, #215 ) ;
#196 = APPROVAL_PERSON_ORGANIZATION ( #266, #8, #70 ) ;
#197 =( BOUNDED_CURVE ( )  B_SPLINE_CURVE ( 3, ( #171, #147, #192, #75 ),
 .UNSPECIFIED., .F., .T. ) 
 B_SPLINE_CURVE_WITH_KNOTS ( ( 4, 4 ),
 ( 5.235987755982986200, 7.330382858376182800 ),
 .UNSPECIFIED. ) 
 CURVE ( )  GEOMETRIC_REPRESENTATION_ITEM ( )  RATIONAL_B_SPLINE_CURVE ( ( 1.000000000000000000, 0.6666666666666663000, 0.6666666666666663000, 1.000000000000000000 ) ) 
 REPRESENTATION_ITEM ( '' )  );
#198 = LINE ( 'NONE', #200, #193 ) ;
#199 = ORIENTED_EDGE ( 'NONE', *, *, #288, .F. ) ;
#200 = CARTESIAN_POINT ( 'NONE',  ( -11.40424666751465700, -19.75273465018338800, 31.77530929077493500 ) ) ;
#201 = PRODUCT_DEFINITION ( 'Î´Öª', '', #179, #180 ) ;
#202 = AXIS2_PLACEMENT_3D ( 'NONE', #31, #62, #279 ) ;
#203 = DIRECTION ( 'NONE',  ( 0.0000000000000000000, 0.0000000000000000000, 1.000000000000000000 ) ) ;
#204 = DATE_AND_TIME ( #80, #174 ) ;
#205 = LOCAL_TIME ( 9, 52, 41.00000000000000000, #161 ) ;
#206 = CARTESIAN_POINT ( 'NONE',  ( 0.0000000000000000000, 0.0000000000000000000, 0.0000000000000000000 ) ) ;
#207 = CC_DESIGN_SECURITY_CLASSIFICATION ( #20, ( #179 ) ) ;
#208 = APPROVAL_DATE_TIME ( #120, #242 ) ;
#209 = VERTEX_POINT ( 'NONE', #300 ) ;
#210 = PERSON_AND_ORGANIZATION_ROLE ( 'design_supplier' ) ;
#211 = DIRECTION ( 'NONE',  ( -1.000000000000000000, 0.0000000000000000000, 0.0000000000000000000 ) ) ;
#212 = APPLICATION_PROTOCOL_DEFINITION ( 'international standard', 'config_control_design', 1994, #290 ) ;
#213 = ADVANCED_FACE ( 'NONE', ( #91 ), #150, .F. ) ;
#214 = VECTOR ( 'NONE', #98, 1000.000000000000000 ) ;
#215 = DESIGN_CONTEXT ( 'detailed design', #140, 'design' ) ;
#216 = ORIENTED_EDGE ( 'NONE', *, *, #299, .T. ) ;
#217 = APPROVAL ( #74, 'Î´Ö¸¶¨' ) ;
#218 = DATE_AND_TIME ( #230, #131 ) ;
#219 = CIRCLE ( 'NONE', #165, 31.10000000000000100 ) ;
#220 = PERSON_AND_ORGANIZATION ( #57, #77 ) ;
#221 = LOCAL_TIME ( 9, 52, 41.00000000000000000, #139 ) ;
#222 = PERSON_AND_ORGANIZATION ( #57, #77 ) ;
#223 =( GEOMETRIC_REPRESENTATION_CONTEXT ( 3 ) GLOBAL_UNCERTAINTY_ASSIGNED_CONTEXT ( ( #108 ) ) GLOBAL_UNIT_ASSIGNED_CONTEXT ( ( #14, #60, #137 ) ) REPRESENTATION_CONTEXT ( 'NONE', 'WORKASPACE' ) );
#224 = LOCAL_TIME ( 9, 52, 41.00000000000000000, #83 ) ;
#225 = PERSON_AND_ORGANIZATION ( #57, #77 ) ;
#226 = CARTESIAN_POINT ( 'NONE',  ( -31.10000000000000100, 0.0000000000000000000, 3.927092742094517900 ) ) ;
#227 = DATE_AND_TIME ( #58, #127 ) ;
#228 = APPLICATION_PROTOCOL_DEFINITION ( 'international standard', 'config_control_design', 1994, #140 ) ;
#229 = DIRECTION ( 'NONE',  ( 1.000000000000000000, 0.0000000000000000000, 0.0000000000000000000 ) ) ;
#230 = CALENDAR_DATE ( 2019, 25, 7 ) ;
#231 = EDGE_LOOP ( 'NONE', ( #152, #53, #136 ) ) ;
#232 = CC_DESIGN_APPROVAL ( #38, ( #55 ) ) ;
#233 = AXIS2_PLACEMENT_3D ( 'NONE', #68, #118, #42 ) ;
#234 = DATE_TIME_ROLE ( 'classification_date' ) ;
#235 = VECTOR ( 'NONE', #87, 1000.000000000000000 ) ;
#236 = CARTESIAN_POINT ( 'NONE',  ( 11.40424666751465600, -19.75273465018338100, 64.02469070922506900 ) ) ;
#237 = APPROVAL_ROLE ( '' ) ;
#238 = CARTESIAN_POINT ( 'NONE',  ( 53.69357503463527300, -30.99999999999985400, 47.89999999999999900 ) ) ;
#239 = DIRECTION ( 'NONE',  ( 0.0000000000000000000, -0.6325343505460011600, 0.7745323075116675700 ) ) ;
#240 = PERSON_AND_ORGANIZATION ( #57, #77 ) ;
#241 = ORIENTED_EDGE ( 'NONE', *, *, #22, .T. ) ;
#242 = APPROVAL ( #256, 'Î´Ö¸¶¨' ) ;
#243 = CALENDAR_DATE ( 2019, 25, 7 ) ;
#244 = ORIENTED_EDGE ( 'NONE', *, *, #168, .F. ) ;
#245 = EDGE_CURVE ( 'NONE', #2, #178, #219, .T. ) ;
#246 = LINE ( 'NONE', #236, #214 ) ;
#247 = ORIENTED_EDGE ( 'NONE', *, *, #280, .F. ) ;
#248 = COORDINATED_UNIVERSAL_TIME_OFFSET ( 8, 0, .AHEAD. ) ;
#249 = AXIS2_PLACEMENT_3D ( 'NONE', #238, #172, #239 ) ;
#250 = APPROVAL_ROLE ( '' ) ;
#251 = CC_DESIGN_PERSON_AND_ORGANIZATION_ASSIGNMENT ( #9, #264, ( #201 ) ) ;
#252 = CARTESIAN_POINT ( 'NONE',  ( 31.10000000000000100, 3.808651545348268500E-015, 47.89999999999999900 ) ) ;
#253 = PRODUCT_DEFINITION_SHAPE ( 'NONE', 'NONE',  #201 ) ;
#254 = DIRECTION ( 'NONE',  ( 0.4082765531884056100, 0.7071557336614137100, 0.5772703218305810200 ) ) ;
#255 = ADVANCED_BREP_SHAPE_REPRESENTATION ( '371508', ( #5, #102 ), #223 ) ;
#256 = APPROVAL_STATUS ( 'not_yet_approved' ) ;
#257 = PERSON_AND_ORGANIZATION ( #57, #77 ) ;
#258 = EDGE_CURVE ( 'NONE', #271, #13, #198, .T. ) ;
#259 = APPLICATION_PROTOCOL_DEFINITION ( 'international standard', 'config_control_design', 1994, #66 ) ;
#260 = CC_DESIGN_APPROVAL ( #242, ( #195 ) ) ;
#261 = EDGE_LOOP ( 'NONE', ( #277, #110, #18, #59, #302 ) ) ;
#262 = APPLICATION_CONTEXT ( 'configuration controlled 3d designs of mechanical parts and assemblies' ) ;
#263 = APPROVAL_STATUS ( 'not_yet_approved' ) ;
#264 = PERSON_AND_ORGANIZATION_ROLE ( 'creator' ) ;
#265 = DATE_TIME_ROLE ( 'classification_date' ) ;
#266 = PERSON_AND_ORGANIZATION ( #57, #77 ) ;
#267 = PLANE ( 'NONE',  #36 ) ;
#268 = COORDINATED_UNIVERSAL_TIME_OFFSET ( 8, 0, .AHEAD. ) ;
#269 = LINE ( 'NONE', #101, #67 ) ;
#270 = CARTESIAN_POINT ( 'NONE',  ( 0.0000000000000000000, 0.0000000000000000000, 0.0000000000000000000 ) ) ;
#271 = VERTEX_POINT ( 'NONE', #138 ) ;
#272 = CC_DESIGN_DATE_AND_TIME_ASSIGNMENT ( #218, #167, ( #201 ) ) ;
#273 = APPROVAL_DATE_TIME ( #204, #276 ) ;
#274 = CYLINDRICAL_SURFACE ( 'NONE', #116, 31.10000000000000100 ) ;
#275 = ORIENTED_EDGE ( 'NONE', *, *, #299, .F. ) ;
#276 = APPROVAL ( #122, 'Î´Ö¸¶¨' ) ;
#277 = ORIENTED_EDGE ( 'NONE', *, *, #63, .F. ) ;
#278 = PERSON_AND_ORGANIZATION_ROLE ( 'design_supplier' ) ;
#279 = DIRECTION ( 'NONE',  ( 1.000000000000000000, 0.0000000000000000000, -0.0000000000000000000 ) ) ;
#280 = EDGE_CURVE ( 'NONE', #295, #312, #146, .T. ) ;
#281 = DATE_TIME_ROLE ( 'creation_date' ) ;
#282 = COORDINATED_UNIVERSAL_TIME_OFFSET ( 8, 0, .AHEAD. ) ;
#283 = DIRECTION ( 'NONE',  ( 0.0000000000000000000, 0.0000000000000000000, 1.000000000000000000 ) ) ;
#284 = PLANE ( 'NONE',  #233 ) ;
#285 = MECHANICAL_CONTEXT ( 'NONE', #66, 'mechanical' ) ;
#286 = PERSON_AND_ORGANIZATION_ROLE ( 'creator' ) ;
#287 = ORIENTED_EDGE ( 'NONE', *, *, #245, .T. ) ;
#288 = EDGE_CURVE ( 'NONE', #209, #178, #82, .T. ) ;
#289 = CC_DESIGN_APPROVAL ( #217, ( #201 ) ) ;
#290 = APPLICATION_CONTEXT ( 'configuration controlled 3d designs of mechanical parts and assemblies' ) ;
#291 = CARTESIAN_POINT ( 'NONE',  ( -31.10000000000000900, -11.38339005769603000, 3.927092742094504100 ) ) ;
#292 = DATE_AND_TIME ( #311, #224 ) ;
#293 = DIRECTION ( 'NONE',  ( -0.0000000000000000000, -0.0000000000000000000, -1.000000000000000000 ) ) ;
#294 = PERSON_AND_ORGANIZATION ( #57, #77 ) ;
#295 = VERTEX_POINT ( 'NONE', #112 ) ;
#296 = DIRECTION ( 'NONE',  ( 1.000000000000000000, 0.0000000000000000000, 0.0000000000000000000 ) ) ;
#297 = CC_DESIGN_PERSON_AND_ORGANIZATION_ASSIGNMENT ( #257, #64, ( #133 ) ) ;
#298 = FACE_OUTER_BOUND ( 'NONE', #10, .T. ) ;
#299 = EDGE_CURVE ( 'NONE', #209, #271, #72, .T. ) ;
#300 = CARTESIAN_POINT ( 'NONE',  ( 31.10000000000000500, 2.764153970688419800E-015, 25.91354637104734900 ) ) ;
#301 = CC_DESIGN_PERSON_AND_ORGANIZATION_ASSIGNMENT ( #160, #19, ( #20 ) ) ;
#302 = ORIENTED_EDGE ( 'NONE', *, *, #280, .T. ) ;
#303 = CARTESIAN_POINT ( 'NONE',  ( -15.55000000000003600, -26.93339005769603000, 25.91354637104721400 ) ) ;
#304 = CARTESIAN_POINT ( 'NONE',  ( -25.40830497115199900, 21.24169502884800300, 11.97469330941975100 ) ) ;
#305 = COORDINATED_UNIVERSAL_TIME_OFFSET ( 8, 0, .AHEAD. ) ;
#306 = CC_DESIGN_SECURITY_CLASSIFICATION ( #55, ( #33 ) ) ;
#307 = LOCAL_TIME ( 9, 52, 41.00000000000000000, #282 ) ;
#308 = CARTESIAN_POINT ( 'NONE',  ( 31.10000000000000500, 2.764153970688419800E-015, 25.91354637104734900 ) ) ;
#309 = DIRECTION ( 'NONE',  ( 1.000000000000000000, 0.0000000000000000000, 0.0000000000000000000 ) ) ;
#310 = APPROVAL_PERSON_ORGANIZATION ( #240, #276, #45 ) ;
#311 = CALENDAR_DATE ( 2019, 25, 7 ) ;
#312 = VERTEX_POINT ( 'NONE', #135 ) ;
ENDSEC;
END-ISO-10303-21;
