ISO-10303-21;
HEADER;
FILE_DESCRIPTION (( 'STEP AP203' ),
    '1' );
FILE_NAME ('371509.STEP',
    '2021-05-27T01:17:17',
    ( '' ),
    ( '' ),
    'SwSTEP 2.0',
    'SolidWorks 2020',
    '' );
FILE_SCHEMA (( 'CONFIG_CONTROL_DESIGN' ));
ENDSEC;

DATA;
#1 = VECTOR ( 'NONE', #211, 1000.000000000000000 ) ;
#2 = AXIS2_PLACEMENT_3D ( 'NONE', #279, #276, #88 ) ;
#3 =( BOUNDED_CURVE ( )  B_SPLINE_CURVE ( 3, ( #179, #176, #225, #115 ),
 .UNSPECIFIED., .F., .T. ) 
 B_SPLINE_CURVE_WITH_KNOTS ( ( 4, 4 ),
 ( 3.709860518122440887, 4.188790204786391413 ),
 .UNSPECIFIED. ) 
 CURVE ( )  GEOMETRIC_REPRESENTATION_ITEM ( )  RATIONAL_B_SPLINE_CURVE ( ( 1.000000000000000000, 0.9809766959329784264, 0.9809766959329784264, 1.000000000000000000 ) ) 
 REPRESENTATION_ITEM ( '' )  );
#4 = PERSON_AND_ORGANIZATION_ROLE ( 'design_owner' ) ;
#5 = MECHANICAL_CONTEXT ( 'NONE', #218, 'mechanical' ) ;
#6 = EDGE_CURVE ( 'NONE', #157, #269, #119, .T. ) ;
#7 = SHAPE_DEFINITION_REPRESENTATION ( #53, #50 ) ;
#8 = APPROVAL_STATUS ( 'not_yet_approved' ) ;
#9 = DIRECTION ( 'NONE',  ( 0.000000000000000000, 0.5735764363510459374, -0.8191520442889920206 ) ) ;
#10 = AXIS2_PLACEMENT_3D ( 'NONE', #274, #255, #122 ) ;
#11 = ORIENTED_EDGE ( 'NONE', *, *, #96, .T. ) ;
#12 = CARTESIAN_POINT ( 'NONE',  ( 14.97696033364629997, 39.12000000000000455, -28.84338154870859938 ) ) ;
#13 = ORIENTED_EDGE ( 'NONE', *, *, #194, .F. ) ;
#14 = EDGE_LOOP ( 'NONE', ( #140, #81, #260 ) ) ;
#15 = ADVANCED_FACE ( 'NONE', ( #105 ), #102, .F. ) ;
#16 = ORGANIZATION ( 'Î´Ö¸¶¨', 'Î´Ö¸¶¨', '' ) ;
#17 = CARTESIAN_POINT ( 'NONE',  ( 28.14582562299430180, 23.20740510955939939, 16.25000000000000000 ) ) ;
#18 = CARTESIAN_POINT ( 'NONE',  ( -21.90590681474230905, 35.09364890500813772, 24.57283750657160937 ) ) ;
#19 = FACE_OUTER_BOUND ( 'NONE', #251, .T. ) ;
#20 = ORIENTED_EDGE ( 'NONE', *, *, #235, .T. ) ;
#21 = FACE_OUTER_BOUND ( 'NONE', #58, .T. ) ;
#22 = ORIENTED_EDGE ( 'NONE', *, *, #26, .F. ) ;
#23 = MANIFOLD_SOLID_BREP ( '371509.stp', #169 ) ;
#24 = APPROVAL ( #195, 'Î´Ö¸¶¨' ) ;
#25 = DATE_AND_TIME ( #219, #39 ) ;
#26 = EDGE_CURVE ( 'NONE', #231, #269, #263, .T. ) ;
#27 = SECURITY_CLASSIFICATION_LEVEL ( 'unclassified' ) ;
#28 = CARTESIAN_POINT ( 'NONE',  ( 0.000000000000000000, 0.000000000000000000, 0.000000000000000000 ) ) ;
#29 = DATE_TIME_ROLE ( 'classification_date' ) ;
#30 = APPROVAL_PERSON_ORGANIZATION ( #221, #242, #156 ) ;
#31 = DIRECTION ( 'NONE',  ( 1.000000000000000000, 0.000000000000000000, 0.000000000000000000 ) ) ;
#32 = CYLINDRICAL_SURFACE ( 'NONE', #267, 32.50000000000000000 ) ;
#33 = DIRECTION ( 'NONE',  ( 1.000000000000000000, 0.000000000000000000, 0.000000000000000000 ) ) ;
#34 = ORIENTED_EDGE ( 'NONE', *, *, #85, .T. ) ;
#35 = ORIENTED_EDGE ( 'NONE', *, *, #138, .T. ) ;
#36 = EDGE_CURVE ( 'NONE', #83, #254, #184, .T. ) ;
#37 = ORIENTED_EDGE ( 'NONE', *, *, #47, .T. ) ;
#38 = CARTESIAN_POINT ( 'NONE',  ( 32.23365493112923019, 35.09364890500812351, 6.684653041215712577 ) ) ;
#39 = LOCAL_TIME ( 9, 17, 17.00000000000000000, #151 ) ;
#40 = AXIS2_PLACEMENT_3D ( 'NONE', #42, #44, #191 ) ;
#41 = DIRECTION ( 'NONE',  ( 0.000000000000000000, 1.000000000000000000, 0.000000000000000000 ) ) ;
#42 = CARTESIAN_POINT ( 'NONE',  ( 0.000000000000000000, 0.000000000000000000, 0.000000000000000000 ) ) ;
#43 = EDGE_CURVE ( 'NONE', #254, #190, #126, .T. ) ;
#44 = DIRECTION ( 'NONE',  ( -0.7094064799162228541, 0.5735764363510458264, 0.4095760221444959548 ) ) ;
#45 = APPROVAL ( #8, 'Î´Ö¸¶¨' ) ;
#46 = VECTOR ( 'NONE', #259, 1000.000000000000000 ) ;
#47 = EDGE_CURVE ( 'NONE', #157, #59, #142, .T. ) ;
#48 = PERSON_AND_ORGANIZATION ( #73, #16 ) ;
#49 = DATE_AND_TIME ( #133, #247 ) ;
#50 = ADVANCED_BREP_SHAPE_REPRESENTATION ( '371509', ( #23, #148 ), #134 ) ;
#51 = COORDINATED_UNIVERSAL_TIME_OFFSET ( 8, 0, .AHEAD. ) ;
#52 = APPROVAL_PERSON_ORGANIZATION ( #198, #45, #244 ) ;
#53 = PRODUCT_DEFINITION_SHAPE ( 'NONE', 'NONE',  #93 ) ;
#54 = CARTESIAN_POINT ( 'NONE',  ( -28.14582562299430180, 23.20740510955939939, 16.25000000000000000 ) ) ;
#55 = CARTESIAN_POINT ( 'NONE',  ( -32.23365493112924440, 35.09364890500815193, 6.684653041215651292 ) ) ;
#56 =( LENGTH_UNIT ( ) NAMED_UNIT ( * ) SI_UNIT ( .MILLI., .METRE. ) );
#57 = CYLINDRICAL_SURFACE ( 'NONE', #100, 32.50000000000000000 ) ;
#58 = EDGE_LOOP ( 'NONE', ( #13, #97, #139, #78, #181 ) ) ;
#59 = VERTEX_POINT ( 'NONE', #104 ) ;
#60 = DIRECTION ( 'NONE',  ( -0.4999999999999998890, 0.000000000000000000, -0.8660254037844387076 ) ) ;
#61 = CARTESIAN_POINT ( 'NONE',  ( 1.076789812718000059E-15, 39.12000000000000455, 27.39211889476390027 ) ) ;
#62 = ORIENTED_EDGE ( 'NONE', *, *, #124, .T. ) ;
#63 = CARTESIAN_POINT ( 'NONE',  ( 32.46758131905219358, 39.12000000000000455, 1.451262653944819903 ) ) ;
#64 = CARTESIAN_POINT ( 'NONE',  ( 0.000000000000000000, 0.000000000000000000, 0.000000000000000000 ) ) ;
#65 = PLANE ( 'NONE',  #40 ) ;
#66 = ADVANCED_FACE ( 'NONE', ( #19 ), #86, .T. ) ;
#67 = CIRCLE ( 'NONE', #155, 32.50000000000000000 ) ;
#68 = CALENDAR_DATE ( 2021, 27, 5 ) ;
#69 = APPLICATION_CONTEXT ( 'configuration controlled 3d designs of mechanical parts and assemblies' ) ;
#70 = APPROVAL_DATE_TIME ( #71, #242 ) ;
#71 = DATE_AND_TIME ( #241, #185 ) ;
#72 = DATE_AND_TIME ( #90, #193 ) ;
#73 = PERSON ( 'Î´Ö¸¶¨', 'Î´Ö¸¶¨', 'Î´Ö¸¶¨', ('Î´Ö¸¶¨'), ('Î´Ö¸¶¨'), ('Î´Ö¸¶¨') ) ;
#74 = CC_DESIGN_PERSON_AND_ORGANIZATION_ASSIGNMENT ( #91, #4, ( #150 ) ) ;
#75 = CC_DESIGN_SECURITY_CLASSIFICATION ( #208, ( #110 ) ) ;
#76 = CARTESIAN_POINT ( 'NONE',  ( -14.97696033364620050, 39.12000000000000455, -28.84338154870870241 ) ) ;
#77 = CARTESIAN_POINT ( 'NONE',  ( 8.867433106351558584E-15, 23.20740510955939939, -32.50000000000000000 ) ) ;
#78 = ORIENTED_EDGE ( 'NONE', *, *, #124, .F. ) ;
#79 = CARTESIAN_POINT ( 'NONE',  ( -30.76513357074239252, 29.68659049189379928, 11.71322555383125774 ) ) ;
#80 = CC_DESIGN_PERSON_AND_ORGANIZATION_ASSIGNMENT ( #175, #174, ( #93 ) ) ;
#81 = ORIENTED_EDGE ( 'NONE', *, *, #109, .T. ) ;
#82 = LINE ( 'NONE', #164, #197 ) ;
#83 = VERTEX_POINT ( 'NONE', #234 ) ;
#84 = CARTESIAN_POINT ( 'NONE',  ( 0.000000000000000000, 0.000000000000000000, 0.000000000000000000 ) ) ;
#85 = EDGE_CURVE ( 'NONE', #127, #117, #240, .T. ) ;
#86 = PLANE ( 'NONE',  #10 ) ;
#87 = EDGE_LOOP ( 'NONE', ( #205, #37, #99, #167, #120 ) ) ;
#88 = DIRECTION ( 'NONE',  ( 1.000000000000000000, 0.000000000000000000, 0.000000000000000000 ) ) ;
#89 = EDGE_CURVE ( 'NONE', #117, #231, #82, .T. ) ;
#90 = CALENDAR_DATE ( 2021, 27, 5 ) ;
#91 = PERSON_AND_ORGANIZATION ( #73, #16 ) ;
#92 = PERSON_AND_ORGANIZATION ( #73, #16 ) ;
#93 = PRODUCT_DEFINITION ( 'Î´Öª', '', #110, #199 ) ;
#94 = DIRECTION ( 'NONE',  ( 0.000000000000000000, 1.000000000000000000, 0.000000000000000000 ) ) ;
#95 = CARTESIAN_POINT ( 'NONE',  ( -17.49062098540590071, 39.12000000000000455, 27.39211889476380080 ) ) ;
#96 = EDGE_CURVE ( 'NONE', #269, #83, #257, .T. ) ;
#97 = ORIENTED_EDGE ( 'NONE', *, *, #89, .F. ) ;
#98 = CARTESIAN_POINT ( 'NONE',  ( 0.000000000000000000, 39.12000000000000455, 0.000000000000000000 ) ) ;
#99 = ORIENTED_EDGE ( 'NONE', *, *, #138, .F. ) ;
#100 = AXIS2_PLACEMENT_3D ( 'NONE', #137, #228, #203 ) ;
#101 = CARTESIAN_POINT ( 'NONE',  ( 32.46758131905219358, 39.12000000000000455, 1.451262653944819903 ) ) ;
#102 = PLANE ( 'NONE',  #107 ) ;
#103 = CARTESIAN_POINT ( 'NONE',  ( -28.14582562299430180, 23.20740510955939939, 16.25000000000000000 ) ) ;
#104 = CARTESIAN_POINT ( 'NONE',  ( 0.000000000000000000, 0.000000000000000000, 0.000000000000000000 ) ) ;
#105 = FACE_OUTER_BOUND ( 'NONE', #87, .T. ) ;
#106 = CARTESIAN_POINT ( 'NONE',  ( -25.52651767524614712, 29.68659049189376020, 20.78677444616869252 ) ) ;
#107 = AXIS2_PLACEMENT_3D ( 'NONE', #64, #108, #187 ) ;
#108 = DIRECTION ( 'NONE',  ( 0.7094064799162222990, 0.5735764363510463815, 0.4095760221444960103 ) ) ;
#109 = EDGE_CURVE ( 'NONE', #272, #254, #265, .T. ) ;
#110 = PRODUCT_DEFINITION_FORMATION_WITH_SPECIFIED_SOURCE ( 'ÈÎºÎ', '', #150, .NOT_KNOWN. ) ;
#111 = PERSON_AND_ORGANIZATION_ROLE ( 'design_supplier' ) ;
#112 = DIRECTION ( 'NONE',  ( 0.000000000000000000, 0.000000000000000000, 1.000000000000000000 ) ) ;
#113 = APPROVAL_ROLE ( '' ) ;
#114 = ADVANCED_FACE ( 'NONE', ( #21 ), #65, .F. ) ;
#115 = CARTESIAN_POINT ( 'NONE',  ( 28.14582562299430180, 23.20740510955939939, 16.25000000000000000 ) ) ;
#116 = FACE_OUTER_BOUND ( 'NONE', #160, .T. ) ;
#117 = VERTEX_POINT ( 'NONE', #63 ) ;
#118 = CARTESIAN_POINT ( 'NONE',  ( 0.000000000000000000, 0.000000000000000000, 0.000000000000000000 ) ) ;
#119 =( BOUNDED_CURVE ( )  B_SPLINE_CURVE ( 3, ( #213, #129, #165, #258 ),
 .UNSPECIFIED., .F., .T. ) 
 B_SPLINE_CURVE_WITH_KNOTS ( ( 4, 4 ),
 ( 2.094395102393195707, 2.573324789057143569 ),
 .UNSPECIFIED. ) 
 CURVE ( )  GEOMETRIC_REPRESENTATION_ITEM ( )  RATIONAL_B_SPLINE_CURVE ( ( 1.000000000000000000, 0.9809766959329785374, 0.9809766959329785374, 1.000000000000000000 ) ) 
 REPRESENTATION_ITEM ( '' )  );
#120 = ORIENTED_EDGE ( 'NONE', *, *, #96, .F. ) ;
#121 = EDGE_LOOP ( 'NONE', ( #232, #144, #22 ) ) ;
#122 = DIRECTION ( 'NONE',  ( 1.000000000000000000, 0.000000000000000000, 0.000000000000000000 ) ) ;
#123 = APPROVAL_PERSON_ORGANIZATION ( #48, #24, #113 ) ;
#124 = EDGE_CURVE ( 'NONE', #59, #127, #145, .T. ) ;
#125 = VECTOR ( 'NONE', #147, 1000.000000000000000 ) ;
#126 = LINE ( 'NONE', #61, #1 ) ;
#127 = VERTEX_POINT ( 'NONE', #168 ) ;
#128 = DIRECTION ( 'NONE',  ( -0.4999999999999998890, 0.000000000000000000, 0.8660254037844387076 ) ) ;
#129 = CARTESIAN_POINT ( 'NONE',  ( -5.238615895496216979, 29.68659049189376375, -32.50000000000000711 ) ) ;
#130 = CYLINDRICAL_SURFACE ( 'NONE', #2, 32.50000000000000000 ) ;
#131 = ADVANCED_FACE ( 'NONE', ( #214 ), #130, .T. ) ;
#132 = DATE_TIME_ROLE ( 'creation_date' ) ;
#133 = CALENDAR_DATE ( 2021, 27, 5 ) ;
#134 =( GEOMETRIC_REPRESENTATION_CONTEXT ( 3 ) GLOBAL_UNCERTAINTY_ASSIGNED_CONTEXT ( ( #159 ) ) GLOBAL_UNIT_ASSIGNED_CONTEXT ( ( #56, #266, #200 ) ) REPRESENTATION_CONTEXT ( 'NONE', 'WORKASPACE' ) );
#135 = CARTESIAN_POINT ( 'NONE',  ( 5.238615895496261388, 29.68659049189380283, -32.50000000000001421 ) ) ;
#136 = APPROVAL_STATUS ( 'not_yet_approved' ) ;
#137 = CARTESIAN_POINT ( 'NONE',  ( 0.000000000000000000, 0.000000000000000000, 0.000000000000000000 ) ) ;
#138 = EDGE_CURVE ( 'NONE', #272, #59, #261, .T. ) ;
#139 = ORIENTED_EDGE ( 'NONE', *, *, #85, .F. ) ;
#140 = ORIENTED_EDGE ( 'NONE', *, *, #212, .T. ) ;
#141 = DIRECTION ( 'NONE',  ( 0.000000000000000000, 1.000000000000000000, 0.000000000000000000 ) ) ;
#142 = LINE ( 'NONE', #163, #253 ) ;
#143 = CC_DESIGN_APPROVAL ( #242, ( #110 ) ) ;
#144 = ORIENTED_EDGE ( 'NONE', *, *, #6, .T. ) ;
#145 = LINE ( 'NONE', #237, #46 ) ;
#146 = ORIENTED_EDGE ( 'NONE', *, *, #26, .T. ) ;
#147 = DIRECTION ( 'NONE',  ( 0.7047844236084629399, -0.5811241017647169604, -0.4069074766910009688 ) ) ;
#148 = AXIS2_PLACEMENT_3D ( 'NONE', #28, #112, #196 ) ;
#149 = APPROVAL_DATE_TIME ( #25, #24 ) ;
#150 = PRODUCT ( '371509', '371509', '', ( #5 ) ) ;
#151 = COORDINATED_UNIVERSAL_TIME_OFFSET ( 8, 0, .AHEAD. ) ;
#152 = APPROVAL_DATE_TIME ( #72, #45 ) ;
#153 = CC_DESIGN_PERSON_AND_ORGANIZATION_ASSIGNMENT ( #154, #222, ( #208 ) ) ;
#154 = PERSON_AND_ORGANIZATION ( #73, #16 ) ;
#155 = AXIS2_PLACEMENT_3D ( 'NONE', #98, #94, #31 ) ;
#156 = APPROVAL_ROLE ( '' ) ;
#157 = VERTEX_POINT ( 'NONE', #239 ) ;
#158 = CARTESIAN_POINT ( 'NONE',  ( 14.97696033364629997, 39.12000000000000455, -28.84338154870859938 ) ) ;
#159 = UNCERTAINTY_MEASURE_WITH_UNIT (LENGTH_MEASURE( 1.000000000000000082E-05 ), #56, 'distance_accuracy_value', 'NONE');
#160 = EDGE_LOOP ( 'NONE', ( #62, #183, #215, #236, #35 ) ) ;
#161 = VECTOR ( 'NONE', #128, 1000.000000000000000 ) ;
#162 = ADVANCED_FACE ( 'NONE', ( #166 ), #32, .T. ) ;
#163 = CARTESIAN_POINT ( 'NONE',  ( 0.000000000000000000, 0.000000000000000000, 0.000000000000000000 ) ) ;
#164 = CARTESIAN_POINT ( 'NONE',  ( 23.72227082634920237, 39.12000000000000455, -13.69605944738190040 ) ) ;
#165 = CARTESIAN_POINT ( 'NONE',  ( -10.32774811638689449, 35.09364890500811640, -31.25749054778729530 ) ) ;
#166 = FACE_OUTER_BOUND ( 'NONE', #121, .T. ) ;
#167 = ORIENTED_EDGE ( 'NONE', *, *, #212, .F. ) ;
#168 = CARTESIAN_POINT ( 'NONE',  ( 28.14582562299430180, 23.20740510955939939, 16.25000000000000000 ) ) ;
#169 = CLOSED_SHELL ( 'NONE', ( #66, #177, #162, #131, #229, #15, #114 ) ) ;
#170 = CC_DESIGN_APPROVAL ( #45, ( #93 ) ) ;
#171 = CC_DESIGN_DATE_AND_TIME_ASSIGNMENT ( #243, #29, ( #208 ) ) ;
#172 = COORDINATED_UNIVERSAL_TIME_OFFSET ( 8, 0, .AHEAD. ) ;
#173 = PERSON_AND_ORGANIZATION_ROLE ( 'creator' ) ;
#174 = PERSON_AND_ORGANIZATION_ROLE ( 'creator' ) ;
#175 = PERSON_AND_ORGANIZATION ( #73, #16 ) ;
#176 = CARTESIAN_POINT ( 'NONE',  ( 21.90590681474230550, 35.09364890500813772, 24.57283750657161292 ) ) ;
#177 = ADVANCED_FACE ( 'NONE', ( #116 ), #182, .F. ) ;
#178 = AXIS2_PLACEMENT_3D ( 'NONE', #277, #41, #209 ) ;
#179 = CARTESIAN_POINT ( 'NONE',  ( 17.49062098540590071, 39.12000000000000455, 27.39211889476380080 ) ) ;
#180 = DIRECTION ( 'NONE',  ( -1.000000000000000000, 0.000000000000000000, 0.000000000000000000 ) ) ;
#181 = ORIENTED_EDGE ( 'NONE', *, *, #47, .F. ) ;
#182 = PLANE ( 'NONE',  #210 ) ;
#183 = ORIENTED_EDGE ( 'NONE', *, *, #262, .F. ) ;
#184 = CIRCLE ( 'NONE', #178, 32.50000000000000000 ) ;
#185 = LOCAL_TIME ( 9, 17, 17.00000000000000000, #248 ) ;
#186 = DIRECTION ( 'NONE',  ( 1.000000000000000000, 0.000000000000000000, 0.000000000000000000 ) ) ;
#187 = DIRECTION ( 'NONE',  ( 0.000000000000000000, 0.5811241017647168494, -0.8138149533820027148 ) ) ;
#188 = CARTESIAN_POINT ( 'NONE',  ( -23.72227082634920237, 39.12000000000000455, -13.69605944738190040 ) ) ;
#189 = DIRECTION ( 'NONE',  ( -2.220446049250310862E-16, -0.5811241017647172935, 0.8138149533820022707 ) ) ;
#190 = VERTEX_POINT ( 'NONE', #226 ) ;
#191 = DIRECTION ( 'NONE',  ( 0.4999999999999998890, 0.000000000000000000, 0.8660254037844387076 ) ) ;
#192 = CC_DESIGN_APPROVAL ( #24, ( #208 ) ) ;
#193 = LOCAL_TIME ( 9, 17, 17.00000000000000000, #245 ) ;
#194 = EDGE_CURVE ( 'NONE', #231, #157, #227, .T. ) ;
#195 = APPROVAL_STATUS ( 'not_yet_approved' ) ;
#196 = DIRECTION ( 'NONE',  ( 1.000000000000000000, 0.000000000000000000, 0.000000000000000000 ) ) ;
#197 = VECTOR ( 'NONE', #60, 1000.000000000000000 ) ;
#198 = PERSON_AND_ORGANIZATION ( #73, #16 ) ;
#199 = DESIGN_CONTEXT ( 'detailed design', #69, 'design' ) ;
#200 =( NAMED_UNIT ( * ) SI_UNIT ( $, .STERADIAN. ) SOLID_ANGLE_UNIT ( ) );
#201 = CARTESIAN_POINT ( 'NONE',  ( 0.000000000000000000, 0.000000000000000000, 0.000000000000000000 ) ) ;
#202 = ORIENTED_EDGE ( 'NONE', *, *, #89, .T. ) ;
#203 = DIRECTION ( 'NONE',  ( 1.000000000000000000, 0.000000000000000000, 0.000000000000000000 ) ) ;
#204 = CC_DESIGN_PERSON_AND_ORGANIZATION_ASSIGNMENT ( #220, #173, ( #110 ) ) ;
#205 = ORIENTED_EDGE ( 'NONE', *, *, #6, .F. ) ;
#206 =( BOUNDED_CURVE ( )  B_SPLINE_CURVE ( 3, ( #270, #55, #79, #250 ),
 .UNSPECIFIED., .F., .T. ) 
 B_SPLINE_CURVE_WITH_KNOTS ( ( 4, 4 ),
 ( 3.709860518122440443, 4.188790204786389637 ),
 .UNSPECIFIED. ) 
 CURVE ( )  GEOMETRIC_REPRESENTATION_ITEM ( )  RATIONAL_B_SPLINE_CURVE ( ( 1.000000000000000000, 0.9809766959329785374, 0.9809766959329785374, 1.000000000000000000 ) ) 
 REPRESENTATION_ITEM ( '' )  );
#207 = ORIENTED_EDGE ( 'NONE', *, *, #36, .T. ) ;
#208 = SECURITY_CLASSIFICATION ( '', '', #27 ) ;
#209 = DIRECTION ( 'NONE',  ( 1.000000000000000000, 0.000000000000000000, 0.000000000000000000 ) ) ;
#210 = AXIS2_PLACEMENT_3D ( 'NONE', #201, #9, #180 ) ;
#211 = DIRECTION ( 'NONE',  ( 1.000000000000000000, 0.000000000000000000, 0.000000000000000000 ) ) ;
#212 = EDGE_CURVE ( 'NONE', #83, #272, #206, .T. ) ;
#213 = CARTESIAN_POINT ( 'NONE',  ( 8.867433106351558584E-15, 23.20740510955939939, -32.50000000000000000 ) ) ;
#214 = FACE_OUTER_BOUND ( 'NONE', #238, .T. ) ;
#215 = ORIENTED_EDGE ( 'NONE', *, *, #43, .F. ) ;
#216 = CARTESIAN_POINT ( 'NONE',  ( -17.49062098540590071, 39.12000000000000455, 27.39211889476380080 ) ) ;
#217 = AXIS2_PLACEMENT_3D ( 'NONE', #275, #141, #186 ) ;
#218 = APPLICATION_CONTEXT ( 'configuration controlled 3d designs of mechanical parts and assemblies' ) ;
#219 = CALENDAR_DATE ( 2021, 27, 5 ) ;
#220 = PERSON_AND_ORGANIZATION ( #73, #16 ) ;
#221 = PERSON_AND_ORGANIZATION ( #73, #16 ) ;
#222 = PERSON_AND_ORGANIZATION_ROLE ( 'classification_officer' ) ;
#223 = APPLICATION_PROTOCOL_DEFINITION ( 'international standard', 'config_control_design', 1994, #218 ) ;
#224 = CC_DESIGN_PERSON_AND_ORGANIZATION_ASSIGNMENT ( #92, #111, ( #110 ) ) ;
#225 = CARTESIAN_POINT ( 'NONE',  ( 25.52651767524615067, 29.68659049189376020, 20.78677444616869607 ) ) ;
#226 = CARTESIAN_POINT ( 'NONE',  ( 17.49062098540590071, 39.12000000000000455, 27.39211889476380080 ) ) ;
#227 =( BOUNDED_CURVE ( )  B_SPLINE_CURVE ( 3, ( #12, #268, #135, #77 ),
 .UNSPECIFIED., .F., .F. ) 
 B_SPLINE_CURVE_WITH_KNOTS ( ( 4, 4 ),
 ( 0.5682678645326459943, 1.047197551196597409 ),
 .UNSPECIFIED. ) 
 CURVE ( )  GEOMETRIC_REPRESENTATION_ITEM ( )  RATIONAL_B_SPLINE_CURVE ( ( 1.000000000000000000, 0.9809766959329782043, 0.9809766959329782043, 1.000000000000000000 ) ) 
 REPRESENTATION_ITEM ( '' )  );
#228 = DIRECTION ( 'NONE',  ( 0.000000000000000000, 1.000000000000000000, 0.000000000000000000 ) ) ;
#229 = ADVANCED_FACE ( 'NONE', ( #252 ), #57, .T. ) ;
#230 = ORIENTED_EDGE ( 'NONE', *, *, #43, .T. ) ;
#231 = VERTEX_POINT ( 'NONE', #158 ) ;
#232 = ORIENTED_EDGE ( 'NONE', *, *, #194, .T. ) ;
#233 = CARTESIAN_POINT ( 'NONE',  ( 30.76513357074238186, 29.68659049189376375, 11.71322555383131458 ) ) ;
#234 = CARTESIAN_POINT ( 'NONE',  ( -32.46758131905219358, 39.12000000000000455, 1.451262653944790149 ) ) ;
#235 = EDGE_CURVE ( 'NONE', #190, #117, #67, .T. ) ;
#236 = ORIENTED_EDGE ( 'NONE', *, *, #109, .F. ) ;
#237 = CARTESIAN_POINT ( 'NONE',  ( 0.000000000000000000, 0.000000000000000000, 0.000000000000000000 ) ) ;
#238 = EDGE_LOOP ( 'NONE', ( #34, #278, #271 ) ) ;
#239 = CARTESIAN_POINT ( 'NONE',  ( 8.867433106351558584E-15, 23.20740510955939939, -32.50000000000000000 ) ) ;
#240 =( BOUNDED_CURVE ( )  B_SPLINE_CURVE ( 3, ( #17, #233, #38, #101 ),
 .UNSPECIFIED., .F., .F. ) 
 B_SPLINE_CURVE_WITH_KNOTS ( ( 4, 4 ),
 ( 5.235987755982988823, 5.714917442646937573 ),
 .UNSPECIFIED. ) 
 CURVE ( )  GEOMETRIC_REPRESENTATION_ITEM ( )  RATIONAL_B_SPLINE_CURVE ( ( 1.000000000000000000, 0.9809766959329785374, 0.9809766959329785374, 1.000000000000000000 ) ) 
 REPRESENTATION_ITEM ( '' )  );
#241 = CALENDAR_DATE ( 2021, 27, 5 ) ;
#242 = APPROVAL ( #136, 'Î´Ö¸¶¨' ) ;
#243 = DATE_AND_TIME ( #68, #246 ) ;
#244 = APPROVAL_ROLE ( '' ) ;
#245 = COORDINATED_UNIVERSAL_TIME_OFFSET ( 8, 0, .AHEAD. ) ;
#246 = LOCAL_TIME ( 9, 17, 17.00000000000000000, #172 ) ;
#247 = LOCAL_TIME ( 9, 17, 17.00000000000000000, #51 ) ;
#248 = COORDINATED_UNIVERSAL_TIME_OFFSET ( 8, 0, .AHEAD. ) ;
#249 = DIRECTION ( 'NONE',  ( 0.000000000000000000, 1.000000000000000000, 0.000000000000000000 ) ) ;
#250 = CARTESIAN_POINT ( 'NONE',  ( -28.14582562299430180, 23.20740510955939939, 16.25000000000000000 ) ) ;
#251 = EDGE_LOOP ( 'NONE', ( #202, #146, #11, #207, #230, #20 ) ) ;
#252 = FACE_OUTER_BOUND ( 'NONE', #14, .T. ) ;
#253 = VECTOR ( 'NONE', #189, 1000.000000000000000 ) ;
#254 = VERTEX_POINT ( 'NONE', #95 ) ;
#255 = DIRECTION ( 'NONE',  ( -0.000000000000000000, 1.000000000000000000, 0.000000000000000000 ) ) ;
#256 = PRODUCT_RELATED_PRODUCT_CATEGORY ( 'detail', '', ( #150 ) ) ;
#257 = LINE ( 'NONE', #188, #161 ) ;
#258 = CARTESIAN_POINT ( 'NONE',  ( -14.97696033364620050, 39.12000000000000455, -28.84338154870870241 ) ) ;
#259 = DIRECTION ( 'NONE',  ( 0.7047844236084629399, 0.5811241017647169604, 0.4069074766910009688 ) ) ;
#260 = ORIENTED_EDGE ( 'NONE', *, *, #36, .F. ) ;
#261 = LINE ( 'NONE', #84, #125 ) ;
#262 = EDGE_CURVE ( 'NONE', #190, #127, #3, .T. ) ;
#263 = CIRCLE ( 'NONE', #217, 32.50000000000000000 ) ;
#264 = APPLICATION_PROTOCOL_DEFINITION ( 'international standard', 'config_control_design', 1994, #69 ) ;
#265 =( BOUNDED_CURVE ( )  B_SPLINE_CURVE ( 3, ( #103, #106, #18, #216 ),
 .UNSPECIFIED., .F., .T. ) 
 B_SPLINE_CURVE_WITH_KNOTS ( ( 4, 4 ),
 ( 2.094395102393195263, 2.573324789057145345 ),
 .UNSPECIFIED. ) 
 CURVE ( )  GEOMETRIC_REPRESENTATION_ITEM ( )  RATIONAL_B_SPLINE_CURVE ( ( 1.000000000000000000, 0.9809766959329784264, 0.9809766959329784264, 1.000000000000000000 ) ) 
 REPRESENTATION_ITEM ( '' )  );
#266 =( NAMED_UNIT ( * ) PLANE_ANGLE_UNIT ( ) SI_UNIT ( $, .RADIAN. ) );
#267 = AXIS2_PLACEMENT_3D ( 'NONE', #118, #249, #33 ) ;
#268 = CARTESIAN_POINT ( 'NONE',  ( 10.32774811638696910, 35.09364890500818746, -31.25749054778729530 ) ) ;
#269 = VERTEX_POINT ( 'NONE', #76 ) ;
#270 = CARTESIAN_POINT ( 'NONE',  ( -32.46758131905219358, 39.12000000000000455, 1.451262653944790149 ) ) ;
#271 = ORIENTED_EDGE ( 'NONE', *, *, #262, .T. ) ;
#272 = VERTEX_POINT ( 'NONE', #54 ) ;
#273 = CC_DESIGN_DATE_AND_TIME_ASSIGNMENT ( #49, #132, ( #93 ) ) ;
#274 = CARTESIAN_POINT ( 'NONE',  ( 2.153579625436000118E-15, 39.12000000000000455, 0.000000000000000000 ) ) ;
#275 = CARTESIAN_POINT ( 'NONE',  ( 0.000000000000000000, 39.12000000000000455, 0.000000000000000000 ) ) ;
#276 = DIRECTION ( 'NONE',  ( 0.000000000000000000, 1.000000000000000000, 0.000000000000000000 ) ) ;
#277 = CARTESIAN_POINT ( 'NONE',  ( 0.000000000000000000, 39.12000000000000455, 0.000000000000000000 ) ) ;
#278 = ORIENTED_EDGE ( 'NONE', *, *, #235, .F. ) ;
#279 = CARTESIAN_POINT ( 'NONE',  ( 0.000000000000000000, 0.000000000000000000, 0.000000000000000000 ) ) ;
ENDSEC;
END-ISO-10303-21;
