ISO-10303-21;
HEADER;
FILE_DESCRIPTION (( 'STEP AP203' ),
    '1' );
FILE_NAME ('371503.STEP',
    '2019-07-24T07:55:56',
    ( '' ),
    ( '' ),
    'SwSTEP 2.0',
    'SolidWorks 2016',
    '' );
FILE_SCHEMA (( 'CONFIG_CONTROL_DESIGN' ));
ENDSEC;

DATA;
#1 = CC_DESIGN_PERSON_AND_ORGANIZATION_ASSIGNMENT ( #63, #308, ( #202 ) ) ;
#2 = ORGANIZATION ( 'Î´Ö¸¶¨', 'Î´Ö¸¶¨', '' ) ;
#3 = CALENDAR_DATE ( 2019, 24, 7 ) ;
#4 = APPROVAL_STATUS ( 'not_yet_approved' ) ;
#5 = PERSON_AND_ORGANIZATION_ROLE ( 'design_owner' ) ;
#6 = COORDINATED_UNIVERSAL_TIME_OFFSET ( 8, 0, .AHEAD. ) ;
#7 = APPROVAL_PERSON_ORGANIZATION ( #128, #56, #216 ) ;
#8 = AXIS2_PLACEMENT_3D ( 'NONE', #132, #108, #210 ) ;
#9 = VECTOR ( 'NONE', #256, 1000.000000000000000 ) ;
#10 = CARTESIAN_POINT ( 'NONE',  ( 12.70000000000000600, 2.380270583351730600E-015, 10.02160896824120000 ) ) ;
#11 = LOCAL_TIME ( 15, 55, 56.00000000000000000, #138 ) ;
#12 = APPROVAL_DATE_TIME ( #187, #68 ) ;
#13 = DIRECTION ( 'NONE',  ( -0.0000000000000000000, -0.0000000000000000000, -1.000000000000000000 ) ) ;
#14 = LOCAL_TIME ( 15, 55, 56.00000000000000000, #162 ) ;
#15 = LINE ( 'NONE', #117, #197 ) ;
#16 = APPROVAL ( #185, 'Î´Ö¸¶¨' ) ;
#17 = ORIENTED_EDGE ( 'NONE', *, *, #143, .F. ) ;
#18 = DATE_TIME_ROLE ( 'classification_date' ) ;
#19 = APPROVAL_ROLE ( '' ) ;
#20 = CC_DESIGN_DATE_AND_TIME_ASSIGNMENT ( #105, #46, ( #218 ) ) ;
#21 = DATE_AND_TIME ( #232, #297 ) ;
#22 = VERTEX_POINT ( 'NONE', #75 ) ;
#23 = PRODUCT_DEFINITION_SHAPE ( 'NONE', 'NONE',  #121 ) ;
#24 =( BOUNDED_CURVE ( )  B_SPLINE_CURVE ( 3, ( #142, #39, #92, #61 ),
 .UNSPECIFIED., .F., .T. ) 
 B_SPLINE_CURVE_WITH_KNOTS ( ( 4, 4 ),
 ( 5.235987755982986200, 7.330382858376182800 ),
 .UNSPECIFIED. ) 
 CURVE ( )  GEOMETRIC_REPRESENTATION_ITEM ( )  RATIONAL_B_SPLINE_CURVE ( ( 1.000000000000000000, 0.6666666666666663000, 0.6666666666666663000, 1.000000000000000000 ) ) 
 REPRESENTATION_ITEM ( '' )  );
#25 = DIRECTION ( 'NONE',  ( 0.0000000000000000000, 0.0000000000000000000, 1.000000000000000000 ) ) ;
#26 = CARTESIAN_POINT ( 'NONE',  ( -6.350000000000013000, -10.99852262806236200, 10.02160896824114600 ) ) ;
#27 = DIRECTION ( 'NONE',  ( 1.000000000000000000, 0.0000000000000000000, 0.0000000000000000000 ) ) ;
#28 = VERTEX_POINT ( 'NONE', #26 ) ;
#29 = PRODUCT_DEFINITION_FORMATION_WITH_SPECIFIED_SOURCE ( 'ÈÎºÎ', '', #98, .NOT_KNOWN. ) ;
#30 = LINE ( 'NONE', #201, #9 ) ;
#31 = VERTEX_POINT ( 'NONE', #222 ) ;
#32 = CC_DESIGN_APPROVAL ( #16, ( #224 ) ) ;
#33 = PLANE ( 'NONE',  #199 ) ;
#34 = AXIS2_PLACEMENT_3D ( 'NONE', #268, #25, #49 ) ;
#35 = ORIENTED_EDGE ( 'NONE', *, *, #263, .F. ) ;
#36 = DIRECTION ( 'NONE',  ( 0.4082200218682777700, 0.7070578185427394100, 0.5774302165486712200 ) ) ;
#37 = PERSON_AND_ORGANIZATION ( #48, #2 ) ;
#38 = ORIENTED_EDGE ( 'NONE', *, *, #286, .T. ) ;
#39 = CARTESIAN_POINT ( 'NONE',  ( 12.70000000000000600, -10.99852262806238000, -3.445977579397086400 ) ) ;
#40 = CYLINDRICAL_SURFACE ( 'NONE', #214, 12.69999999999999900 ) ;
#41 = PERSON_AND_ORGANIZATION_ROLE ( 'creator' ) ;
#42 = CC_DESIGN_DATE_AND_TIME_ASSIGNMENT ( #249, #161, ( #224 ) ) ;
#43 = PERSON_AND_ORGANIZATION ( #48, #2 ) ;
#44 = ORIENTED_EDGE ( 'NONE', *, *, #176, .T. ) ;
#45 = SECURITY_CLASSIFICATION_LEVEL ( 'unclassified' ) ;
#46 = DATE_TIME_ROLE ( 'classification_date' ) ;
#47 = PERSON_AND_ORGANIZATION ( #48, #2 ) ;
#48 = PERSON ( 'Î´Ö¸¶¨', 'Î´Ö¸¶¨', 'Î´Ö¸¶¨', ('Î´Ö¸¶¨'), ('Î´Ö¸¶¨'), ('Î´Ö¸¶¨') ) ;
#49 = DIRECTION ( 'NONE',  ( 1.000000000000000000, 0.0000000000000000000, 0.0000000000000000000 ) ) ;
#50 = LOCAL_TIME ( 15, 55, 56.00000000000000000, #301 ) ;
#51 = AXIS2_PLACEMENT_3D ( 'NONE', #235, #89, #141 ) ;
#52 = AXIS2_PLACEMENT_3D ( 'NONE', #172, #230, #244 ) ;
#53 = PERSON_AND_ORGANIZATION ( #48, #2 ) ;
#54 = COORDINATED_UNIVERSAL_TIME_OFFSET ( 8, 0, .AHEAD. ) ;
#55 = CARTESIAN_POINT ( 'NONE',  ( -10.37573868596882300, 8.674261314031175700, 4.329537139216434100 ) ) ;
#56 = APPROVAL ( #220, 'Î´Ö¸¶¨' ) ;
#57 = VERTEX_POINT ( 'NONE', #99 ) ;
#58 = CARTESIAN_POINT ( 'NONE',  ( 12.69999999999999900, 1.555301434917138400E-015, 0.0000000000000000000 ) ) ;
#59 = CALENDAR_DATE ( 2019, 24, 7 ) ;
#60 = DIRECTION ( 'NONE',  ( -1.000000000000000000, 0.0000000000000000000, 0.0000000000000000000 ) ) ;
#61 = CARTESIAN_POINT ( 'NONE',  ( -6.350000000000013000, -10.99852262806236200, 10.02160896824114600 ) ) ;
#62 = CARTESIAN_POINT ( 'NONE',  ( -7.073520084914156000, -12.25169617543020500, 8.998609560100904400 ) ) ;
#63 = PERSON_AND_ORGANIZATION ( #48, #2 ) ;
#64 = APPROVAL_ROLE ( '' ) ;
#65 = ORIENTED_EDGE ( 'NONE', *, *, #263, .T. ) ;
#66 = APPLICATION_PROTOCOL_DEFINITION ( 'international standard', 'config_control_design', 1994, #190 ) ;
#67 = COORDINATED_UNIVERSAL_TIME_OFFSET ( 8, 0, .AHEAD. ) ;
#68 = APPROVAL ( #93, 'Î´Ö¸¶¨' ) ;
#69 = APPROVAL_STATUS ( 'not_yet_approved' ) ;
#70 = DATE_AND_TIME ( #116, #50 ) ;
#71 = APPROVAL_STATUS ( 'not_yet_approved' ) ;
#72 = LOCAL_TIME ( 15, 55, 56.00000000000000000, #266 ) ;
#73 = APPROVAL_ROLE ( '' ) ;
#74 = CALENDAR_DATE ( 2019, 24, 7 ) ;
#75 = CARTESIAN_POINT ( 'NONE',  ( -12.69999999999999900, 0.0000000000000000000, 1.043217936482335100 ) ) ;
#76 = CC_DESIGN_APPROVAL ( #56, ( #262 ) ) ;
#77 = LINE ( 'NONE', #62, #79 ) ;
#78 = MANIFOLD_SOLID_BREP ( 'ÇÐ³ý-À­Éì3', #310 ) ;
#79 = VECTOR ( 'NONE', #238, 1000.000000000000000 ) ;
#80 = ADVANCED_FACE ( 'NONE', ( #267 ), #196, .F. ) ;
#81 = ORIENTED_EDGE ( 'NONE', *, *, #271, .F. ) ;
#82 = EDGE_CURVE ( 'NONE', #28, #22, #227, .T. ) ;
#83 = FACE_OUTER_BOUND ( 'NONE', #302, .T. ) ;
#84 = ADVANCED_FACE ( 'NONE', ( #261 ), #296, .F. ) ;
#85 = CC_DESIGN_SECURITY_CLASSIFICATION ( #218, ( #202 ) ) ;
#86 = APPROVAL_PERSON_ORGANIZATION ( #53, #137, #64 ) ;
#87 = CARTESIAN_POINT ( 'NONE',  ( 9.816313587227853100, 1.734723475976807100E-015, 12.06025969476389300 ) ) ;
#88 = ORIENTED_EDGE ( 'NONE', *, *, #154, .T. ) ;
#89 = DIRECTION ( 'NONE',  ( -0.0000000000000000000, -0.0000000000000000000, -1.000000000000000000 ) ) ;
#90 = DIRECTION ( 'NONE',  ( 1.000000000000000000, 0.0000000000000000000, 0.0000000000000000000 ) ) ;
#91 = EDGE_LOOP ( 'NONE', ( #234, #164, #289, #17 ) ) ;
#92 = CARTESIAN_POINT ( 'NONE',  ( 3.174999999999990900, -16.49778394209356900, -3.445977579397118400 ) ) ;
#93 = APPROVAL_STATUS ( 'not_yet_approved' ) ;
#94 = CC_DESIGN_APPROVAL ( #171, ( #29 ) ) ;
#95 = PERSON_AND_ORGANIZATION_ROLE ( 'design_owner' ) ;
#96 = PERSON_AND_ORGANIZATION ( #48, #2 ) ;
#97 = ORIENTED_EDGE ( 'NONE', *, *, #286, .F. ) ;
#98 = PRODUCT ( '371503', '371503', '', ( #122 ) ) ;
#99 = CARTESIAN_POINT ( 'NONE',  ( 2.602085213965210600E-015, 2.022940028949129900E-016, 19.00000000000000000 ) ) ;
#100 = COORDINATED_UNIVERSAL_TIME_OFFSET ( 8, 0, .AHEAD. ) ;
#101 = APPLICATION_CONTEXT ( 'configuration controlled 3d designs of mechanical parts and assemblies' ) ;
#102 = CARTESIAN_POINT ( 'NONE',  ( -12.69999999999999900, 0.0000000000000000000, 1.043217936482335100 ) ) ;
#103 = CIRCLE ( 'NONE', #8, 12.69999999999999900 ) ;
#104 = EDGE_CURVE ( 'NONE', #111, #57, #15, .T. ) ;
#105 = DATE_AND_TIME ( #198, #11 ) ;
#106 = ORIENTED_EDGE ( 'NONE', *, *, #181, .F. ) ;
#107 = PRODUCT ( '371503', '371503', '', ( #294 ) ) ;
#108 = DIRECTION ( 'NONE',  ( 0.0000000000000000000, 0.0000000000000000000, 1.000000000000000000 ) ) ;
#109 =( LENGTH_UNIT ( ) NAMED_UNIT ( * ) SI_UNIT ( .MILLI., .METRE. ) );
#110 = APPROVAL_DATE_TIME ( #237, #171 ) ;
#111 = VERTEX_POINT ( 'NONE', #208 ) ;
#112 = COORDINATED_UNIVERSAL_TIME_OFFSET ( 8, 0, .AHEAD. ) ;
#113 = PLANE ( 'NONE',  #52 ) ;
#114 = DIRECTION ( 'NONE',  ( -0.0000000000000000000, -0.0000000000000000000, -1.000000000000000000 ) ) ;
#115 = CARTESIAN_POINT ( 'NONE',  ( -12.69999999999999900, 0.0000000000000000000, 1.043217936482335100 ) ) ;
#116 = CALENDAR_DATE ( 2019, 24, 7 ) ;
#117 = CARTESIAN_POINT ( 'NONE',  ( 7.073520084914155100, -12.25169617543019900, 29.00139043989909000 ) ) ;
#118 = PERSON_AND_ORGANIZATION_ROLE ( 'design_supplier' ) ;
#119 = EDGE_CURVE ( 'NONE', #295, #57, #153, .T. ) ;
#120 = EDGE_LOOP ( 'NONE', ( #231, #88, #38, #299, #250 ) ) ;
#121 = PRODUCT_DEFINITION ( 'Î´Öª', '', #202, #209 ) ;
#122 = MECHANICAL_CONTEXT ( 'NONE', #190, 'mechanical' ) ;
#123 = APPROVAL_PERSON_ORGANIZATION ( #96, #68, #147 ) ;
#124 = DIRECTION ( 'NONE',  ( 0.0000000000000000000, 0.0000000000000000000, 1.000000000000000000 ) ) ;
#125 = DIRECTION ( 'NONE',  ( 0.0000000000000000000, 0.6325343505460013800, 0.7745323075116675700 ) ) ;
#126 = AXIS2_PLACEMENT_3D ( 'NONE', #284, #180, #90 ) ;
#127 = APPROVAL_DATE_TIME ( #288, #16 ) ;
#128 = PERSON_AND_ORGANIZATION ( #48, #2 ) ;
#129 = EDGE_LOOP ( 'NONE', ( #285, #81, #106 ) ) ;
#130 = VECTOR ( 'NONE', #179, 1000.000000000000200 ) ;
#131 = PERSON_AND_ORGANIZATION ( #48, #2 ) ;
#132 = CARTESIAN_POINT ( 'NONE',  ( 0.0000000000000000000, 0.0000000000000000000, 0.0000000000000000000 ) ) ;
#133 = ADVANCED_FACE ( 'NONE', ( #276 ), #40, .T. ) ;
#134 = CC_DESIGN_PERSON_AND_ORGANIZATION_ASSIGNMENT ( #37, #118, ( #29 ) ) ;
#135 = CARTESIAN_POINT ( 'NONE',  ( -12.69999999999999900, 0.0000000000000000000, 19.00000000000000000 ) ) ;
#136 = AXIS2_PLACEMENT_3D ( 'NONE', #269, #192, #125 ) ;
#137 = APPROVAL ( #4, 'Î´Ö¸¶¨' ) ;
#138 = COORDINATED_UNIVERSAL_TIME_OFFSET ( 8, 0, .AHEAD. ) ;
#139 =( BOUNDED_CURVE ( )  B_SPLINE_CURVE ( 3, ( #206, #258, #280, #306 ),
 .UNSPECIFIED., .F., .F. ) 
 B_SPLINE_CURVE_WITH_KNOTS ( ( 4, 4 ),
 ( 5.235987755982986200, 7.330382858376182800 ),
 .UNSPECIFIED. ) 
 CURVE ( )  GEOMETRIC_REPRESENTATION_ITEM ( )  RATIONAL_B_SPLINE_CURVE ( ( 1.000000000000000000, 0.6666666666666663000, 0.6666666666666663000, 1.000000000000000000 ) ) 
 REPRESENTATION_ITEM ( '' )  );
#140 = CALENDAR_DATE ( 2019, 24, 7 ) ;
#141 = DIRECTION ( 'NONE',  ( -1.000000000000000000, 0.0000000000000000000, 0.0000000000000000000 ) ) ;
#142 = CARTESIAN_POINT ( 'NONE',  ( 12.70000000000000600, 2.380270583351730600E-015, 10.02160896824120000 ) ) ;
#143 = EDGE_CURVE ( 'NONE', #22, #111, #251, .T. ) ;
#144 = CYLINDRICAL_SURFACE ( 'NONE', #51, 12.69999999999999900 ) ;
#145 = PERSON_AND_ORGANIZATION_ROLE ( 'classification_officer' ) ;
#146 = DATE_AND_TIME ( #3, #72 ) ;
#147 = APPROVAL_ROLE ( '' ) ;
#148 = APPLICATION_PROTOCOL_DEFINITION ( 'international standard', 'config_control_design', 1994, #221 ) ;
#149 = CARTESIAN_POINT ( 'NONE',  ( 0.0000000000000000000, -24.50000000000000000, 19.00000000000000000 ) ) ;
#150 = VECTOR ( 'NONE', #13, 1000.000000000000000 ) ;
#151 = LOCAL_TIME ( 15, 55, 56.00000000000000000, #54 ) ;
#152 = CC_DESIGN_PERSON_AND_ORGANIZATION_ASSIGNMENT ( #43, #264, ( #121 ) ) ;
#153 = LINE ( 'NONE', #87, #130 ) ;
#154 = EDGE_CURVE ( 'NONE', #295, #207, #30, .T. ) ;
#155 = DATE_AND_TIME ( #140, #186 ) ;
#156 = DIRECTION ( 'NONE',  ( 0.0000000000000000000, -0.6325343505460013800, 0.7745323075116674600 ) ) ;
#157 = LOCAL_TIME ( 15, 55, 56.00000000000000000, #100 ) ;
#158 = DIRECTION ( 'NONE',  ( 0.8164400437365592100, 0.0000000000000000000, -0.5774302165486712200 ) ) ;
#159 = ORIENTED_EDGE ( 'NONE', *, *, #154, .F. ) ;
#160 = CC_DESIGN_DATE_AND_TIME_ASSIGNMENT ( #155, #18, ( #262 ) ) ;
#161 = DATE_TIME_ROLE ( 'creation_date' ) ;
#162 = COORDINATED_UNIVERSAL_TIME_OFFSET ( 8, 0, .AHEAD. ) ;
#163 = EDGE_CURVE ( 'NONE', #22, #31, #213, .T. ) ;
#164 = ORIENTED_EDGE ( 'NONE', *, *, #271, .T. ) ;
#165 = CC_DESIGN_APPROVAL ( #272, ( #202 ) ) ;
#166 = ADVANCED_BREP_SHAPE_REPRESENTATION ( '371503', ( #78, #34 ), #257 ) ;
#167 = PERSON_AND_ORGANIZATION ( #48, #2 ) ;
#168 = EDGE_LOOP ( 'NONE', ( #35, #97 ) ) ;
#169 = CC_DESIGN_PERSON_AND_ORGANIZATION_ASSIGNMENT ( #307, #41, ( #224 ) ) ;
#170 = LOCAL_TIME ( 15, 55, 56.00000000000000000, #215 ) ;
#171 = APPROVAL ( #69, 'Î´Ö¸¶¨' ) ;
#172 = CARTESIAN_POINT ( 'NONE',  ( 0.0000000000000000000, 0.0000000000000000000, 0.0000000000000000000 ) ) ;
#173 = PERSON_AND_ORGANIZATION ( #48, #2 ) ;
#174 = ADVANCED_FACE ( 'NONE', ( #83 ), #33, .T. ) ;
#175 = PERSON_AND_ORGANIZATION ( #48, #2 ) ;
#176 = EDGE_CURVE ( 'NONE', #295, #111, #139, .T. ) ;
#177 = ADVANCED_FACE ( 'NONE', ( #193 ), #144, .T. ) ;
#178 = CC_DESIGN_PERSON_AND_ORGANIZATION_ASSIGNMENT ( #205, #145, ( #218 ) ) ;
#179 = DIRECTION ( 'NONE',  ( -0.8165531063768112200, -1.827950131834282300E-016, 0.5772703218305786900 ) ) ;
#180 = DIRECTION ( 'NONE',  ( 0.0000000000000000000, 0.0000000000000000000, 1.000000000000000000 ) ) ;
#181 = EDGE_CURVE ( 'NONE', #295, #28, #24, .T. ) ;
#182 = APPROVAL_PERSON_ORGANIZATION ( #131, #16, #212 ) ;
#183 = ORIENTED_EDGE ( 'NONE', *, *, #119, .F. ) ;
#184 = CC_DESIGN_DATE_AND_TIME_ASSIGNMENT ( #21, #219, ( #121 ) ) ;
#185 = APPROVAL_STATUS ( 'not_yet_approved' ) ;
#186 = LOCAL_TIME ( 15, 55, 56.00000000000000000, #67 ) ;
#187 = DATE_AND_TIME ( #74, #277 ) ;
#188 = PERSON_AND_ORGANIZATION_ROLE ( 'creator' ) ;
#189 = APPLICATION_PROTOCOL_DEFINITION ( 'international standard', 'config_control_design', 1994, #101 ) ;
#190 = APPLICATION_CONTEXT ( 'configuration controlled 3d designs of mechanical parts and assemblies' ) ;
#191 = CC_DESIGN_SECURITY_CLASSIFICATION ( #262, ( #29 ) ) ;
#192 = DIRECTION ( 'NONE',  ( -0.4082200218682780500, 0.7070578185427394100, -0.5774302165486712200 ) ) ;
#193 = FACE_OUTER_BOUND ( 'NONE', #274, .T. ) ;
#194 = CC_DESIGN_PERSON_AND_ORGANIZATION_ASSIGNMENT ( #265, #95, ( #98 ) ) ;
#195 = APPROVAL_DATE_TIME ( #270, #272 ) ;
#196 = PLANE ( 'NONE',  #136 ) ;
#197 = VECTOR ( 'NONE', #260, 1000.000000000000000 ) ;
#198 = CALENDAR_DATE ( 2019, 24, 7 ) ;
#199 = AXIS2_PLACEMENT_3D ( 'NONE', #204, #36, #156 ) ;
#200 = ORIENTED_EDGE ( 'NONE', *, *, #104, .T. ) ;
#201 = CARTESIAN_POINT ( 'NONE',  ( 12.69999999999999900, 1.555301434917138400E-015, 19.00000000000000000 ) ) ;
#202 = PRODUCT_DEFINITION_FORMATION_WITH_SPECIFIED_SOURCE ( 'ÈÎºÎ', '', #107, .NOT_KNOWN. ) ;
#203 = FACE_OUTER_BOUND ( 'NONE', #168, .T. ) ;
#204 = CARTESIAN_POINT ( 'NONE',  ( 14.72243186433548900, -8.499999999999966200, 19.00000000000000000 ) ) ;
#205 = PERSON_AND_ORGANIZATION ( #48, #2 ) ;
#206 = CARTESIAN_POINT ( 'NONE',  ( 12.70000000000000600, 2.380270583351730600E-015, 10.02160896824120000 ) ) ;
#207 = VERTEX_POINT ( 'NONE', #58 ) ;
#208 = CARTESIAN_POINT ( 'NONE',  ( -6.350000000000017400, 10.99852262806236800, 10.02160896824114100 ) ) ;
#209 = DESIGN_CONTEXT ( 'detailed design', #221, 'design' ) ;
#210 = DIRECTION ( 'NONE',  ( 1.000000000000000000, 0.0000000000000000000, 0.0000000000000000000 ) ) ;
#211 = PRODUCT_RELATED_PRODUCT_CATEGORY ( 'detail', '', ( #98 ) ) ;
#212 = APPROVAL_ROLE ( '' ) ;
#213 = LINE ( 'NONE', #135, #150 ) ;
#214 = AXIS2_PLACEMENT_3D ( 'NONE', #304, #114, #60 ) ;
#215 = COORDINATED_UNIVERSAL_TIME_OFFSET ( 8, 0, .AHEAD. ) ;
#216 = APPROVAL_ROLE ( '' ) ;
#217 = ORIENTED_EDGE ( 'NONE', *, *, #163, .T. ) ;
#218 = SECURITY_CLASSIFICATION ( '', '', #45 ) ;
#219 = DATE_TIME_ROLE ( 'creation_date' ) ;
#220 = APPROVAL_STATUS ( 'not_yet_approved' ) ;
#221 = APPLICATION_CONTEXT ( 'configuration controlled 3d designs of mechanical parts and assemblies' ) ;
#222 = CARTESIAN_POINT ( 'NONE',  ( -12.69999999999999900, 0.0000000000000000000, 0.0000000000000000000 ) ) ;
#223 = CARTESIAN_POINT ( 'NONE',  ( -10.37573868596881800, -8.674261314031179300, 4.329537139216437700 ) ) ;
#224 = PRODUCT_DEFINITION ( 'Î´Öª', '', #29, #228 ) ;
#225 = CARTESIAN_POINT ( 'NONE',  ( -6.350000000000013000, -10.99852262806236200, 10.02160896824114600 ) ) ;
#226 = APPROVAL_PERSON_ORGANIZATION ( #175, #171, #19 ) ;
#227 =( BOUNDED_CURVE ( )  B_SPLINE_CURVE ( 3, ( #225, #223, #247, #102 ),
 .UNSPECIFIED., .F., .F. ) 
 B_SPLINE_CURVE_WITH_KNOTS ( ( 4, 4 ),
 ( 5.235987755982989700, 6.283185307179586200 ),
 .UNSPECIFIED. ) 
 CURVE ( )  GEOMETRIC_REPRESENTATION_ITEM ( )  RATIONAL_B_SPLINE_CURVE ( ( 1.000000000000000000, 0.9106836025229592100, 0.9106836025229592100, 1.000000000000000000 ) ) 
 REPRESENTATION_ITEM ( '' )  );
#228 = DESIGN_CONTEXT ( 'detailed design', #242, 'design' ) ;
#229 = CALENDAR_DATE ( 2019, 24, 7 ) ;
#230 = DIRECTION ( 'NONE',  ( 0.0000000000000000000, 0.0000000000000000000, 1.000000000000000000 ) ) ;
#231 = ORIENTED_EDGE ( 'NONE', *, *, #176, .F. ) ;
#232 = CALENDAR_DATE ( 2019, 24, 7 ) ;
#233 = DIRECTION ( 'NONE',  ( -0.5774302165486712200, 0.0000000000000000000, -0.8164400437365592100 ) ) ;
#234 = ORIENTED_EDGE ( 'NONE', *, *, #82, .F. ) ;
#235 = CARTESIAN_POINT ( 'NONE',  ( 0.0000000000000000000, 0.0000000000000000000, 19.00000000000000000 ) ) ;
#236 = PRODUCT_RELATED_PRODUCT_CATEGORY ( 'detail', '', ( #107 ) ) ;
#237 = DATE_AND_TIME ( #229, #157 ) ;
#238 = DIRECTION ( 'NONE',  ( 0.4082765531884056700, 0.7071557336614138200, 0.5772703218305810200 ) ) ;
#239 = PERSON_AND_ORGANIZATION_ROLE ( 'creator' ) ;
#240 = SHAPE_DEFINITION_REPRESENTATION ( #245, #166 ) ;
#241 = CC_DESIGN_PERSON_AND_ORGANIZATION_ASSIGNMENT ( #173, #5, ( #107 ) ) ;
#242 = APPLICATION_CONTEXT ( 'configuration controlled 3d designs of mechanical parts and assemblies' ) ;
#243 = ORIENTED_EDGE ( 'NONE', *, *, #181, .T. ) ;
#244 = DIRECTION ( 'NONE',  ( 1.000000000000000000, 0.0000000000000000000, -0.0000000000000000000 ) ) ;
#245 = PRODUCT_DEFINITION_SHAPE ( 'NONE', 'NONE',  #224 ) ;
#246 = APPLICATION_PROTOCOL_DEFINITION ( 'international standard', 'config_control_design', 1994, #242 ) ;
#247 = CARTESIAN_POINT ( 'NONE',  ( -12.69999999999999900, -4.648522628062364600, 1.043217936482331700 ) ) ;
#248 = CC_DESIGN_PERSON_AND_ORGANIZATION_ASSIGNMENT ( #293, #290, ( #262 ) ) ;
#249 = DATE_AND_TIME ( #309, #151 ) ;
#250 = ORIENTED_EDGE ( 'NONE', *, *, #143, .T. ) ;
#251 =( BOUNDED_CURVE ( )  B_SPLINE_CURVE ( 3, ( #115, #278, #55, #283 ),
 .UNSPECIFIED., .F., .F. ) 
 B_SPLINE_CURVE_WITH_KNOTS ( ( 4, 4 ),
 ( 0.0000000000000000000, 1.047197551196596500 ),
 .UNSPECIFIED. ) 
 CURVE ( )  GEOMETRIC_REPRESENTATION_ITEM ( )  RATIONAL_B_SPLINE_CURVE ( ( 1.000000000000000000, 0.9106836025229592100, 0.9106836025229592100, 1.000000000000000000 ) ) 
 REPRESENTATION_ITEM ( '' )  );
#252 = CC_DESIGN_PERSON_AND_ORGANIZATION_ASSIGNMENT ( #253, #239, ( #202 ) ) ;
#253 = PERSON_AND_ORGANIZATION ( #48, #2 ) ;
#254 = APPROVAL_PERSON_ORGANIZATION ( #47, #272, #73 ) ;
#255 = AXIS2_PLACEMENT_3D ( 'NONE', #149, #158, #233 ) ;
#256 = DIRECTION ( 'NONE',  ( -0.0000000000000000000, -0.0000000000000000000, -1.000000000000000000 ) ) ;
#257 =( GEOMETRIC_REPRESENTATION_CONTEXT ( 3 ) GLOBAL_UNCERTAINTY_ASSIGNED_CONTEXT ( ( #282 ) ) GLOBAL_UNIT_ASSIGNED_CONTEXT ( ( #109, #275, #292 ) ) REPRESENTATION_CONTEXT ( 'NONE', 'WORKASPACE' ) );
#258 = CARTESIAN_POINT ( 'NONE',  ( 12.70000000000000100, 10.99852262806238200, -3.445977579397081900 ) ) ;
#259 = APPROVAL_DATE_TIME ( #70, #137 ) ;
#260 = DIRECTION ( 'NONE',  ( 0.4082765531884057200, -0.7071557336614137100, 0.5772703218305811300 ) ) ;
#261 = FACE_OUTER_BOUND ( 'NONE', #91, .T. ) ;
#262 = SECURITY_CLASSIFICATION ( '', '', #311 ) ;
#263 = EDGE_CURVE ( 'NONE', #31, #207, #312, .T. ) ;
#264 = PERSON_AND_ORGANIZATION_ROLE ( 'creator' ) ;
#265 = PERSON_AND_ORGANIZATION ( #48, #2 ) ;
#266 = COORDINATED_UNIVERSAL_TIME_OFFSET ( 8, 0, .AHEAD. ) ;
#267 = FACE_OUTER_BOUND ( 'NONE', #129, .T. ) ;
#268 = CARTESIAN_POINT ( 'NONE',  ( 0.0000000000000000000, 0.0000000000000000000, 0.0000000000000000000 ) ) ;
#269 = CARTESIAN_POINT ( 'NONE',  ( 11.69134295108994500, 6.749999999999978700, 19.00000000000000000 ) ) ;
#270 = DATE_AND_TIME ( #273, #14 ) ;
#271 = EDGE_CURVE ( 'NONE', #28, #57, #77, .T. ) ;
#272 = APPROVAL ( #71, 'Î´Ö¸¶¨' ) ;
#273 = CALENDAR_DATE ( 2019, 24, 7 ) ;
#274 = EDGE_LOOP ( 'NONE', ( #159, #243, #298, #217, #65 ) ) ;
#275 =( NAMED_UNIT ( * ) PLANE_ANGLE_UNIT ( ) SI_UNIT ( $, .RADIAN. ) );
#276 = FACE_OUTER_BOUND ( 'NONE', #120, .T. ) ;
#277 = LOCAL_TIME ( 15, 55, 56.00000000000000000, #6 ) ;
#278 = CARTESIAN_POINT ( 'NONE',  ( -12.69999999999999900, 4.648522628062364600, 1.043217936482331700 ) ) ;
#279 = APPROVAL_DATE_TIME ( #146, #56 ) ;
#280 = CARTESIAN_POINT ( 'NONE',  ( 3.174999999999988300, 16.49778394209356900, -3.445977579397109000 ) ) ;
#281 = CC_DESIGN_APPROVAL ( #137, ( #121 ) ) ;
#282 = UNCERTAINTY_MEASURE_WITH_UNIT (LENGTH_MEASURE( 1.000000000000000100E-005 ), #109, 'distance_accuracy_value', 'NONE');
#283 = CARTESIAN_POINT ( 'NONE',  ( -6.350000000000017400, 10.99852262806236800, 10.02160896824114100 ) ) ;
#284 = CARTESIAN_POINT ( 'NONE',  ( 0.0000000000000000000, 0.0000000000000000000, 0.0000000000000000000 ) ) ;
#285 = ORIENTED_EDGE ( 'NONE', *, *, #119, .T. ) ;
#286 = EDGE_CURVE ( 'NONE', #207, #31, #103, .T. ) ;
#287 = CC_DESIGN_APPROVAL ( #68, ( #218 ) ) ;
#288 = DATE_AND_TIME ( #59, #170 ) ;
#289 = ORIENTED_EDGE ( 'NONE', *, *, #104, .F. ) ;
#290 = PERSON_AND_ORGANIZATION_ROLE ( 'classification_officer' ) ;
#291 = CARTESIAN_POINT ( 'NONE',  ( 0.0000000000000000000, 0.0000000000000000000, 0.0000000000000000000 ) ) ;
#292 =( NAMED_UNIT ( * ) SI_UNIT ( $, .STERADIAN. ) SOLID_ANGLE_UNIT ( ) );
#293 = PERSON_AND_ORGANIZATION ( #48, #2 ) ;
#294 = MECHANICAL_CONTEXT ( 'NONE', #101, 'mechanical' ) ;
#295 = VERTEX_POINT ( 'NONE', #10 ) ;
#296 = PLANE ( 'NONE',  #255 ) ;
#297 = LOCAL_TIME ( 15, 55, 56.00000000000000000, #112 ) ;
#298 = ORIENTED_EDGE ( 'NONE', *, *, #82, .T. ) ;
#299 = ORIENTED_EDGE ( 'NONE', *, *, #163, .F. ) ;
#300 = ADVANCED_FACE ( 'NONE', ( #203 ), #113, .F. ) ;
#301 = COORDINATED_UNIVERSAL_TIME_OFFSET ( 8, 0, .AHEAD. ) ;
#302 = EDGE_LOOP ( 'NONE', ( #183, #44, #200 ) ) ;
#303 = AXIS2_PLACEMENT_3D ( 'NONE', #291, #124, #27 ) ;
#304 = CARTESIAN_POINT ( 'NONE',  ( 0.0000000000000000000, 0.0000000000000000000, 19.00000000000000000 ) ) ;
#305 = CC_DESIGN_PERSON_AND_ORGANIZATION_ASSIGNMENT ( #167, #188, ( #29 ) ) ;
#306 = CARTESIAN_POINT ( 'NONE',  ( -6.350000000000017400, 10.99852262806236800, 10.02160896824114100 ) ) ;
#307 = PERSON_AND_ORGANIZATION ( #48, #2 ) ;
#308 = PERSON_AND_ORGANIZATION_ROLE ( 'design_supplier' ) ;
#309 = CALENDAR_DATE ( 2019, 24, 7 ) ;
#310 = CLOSED_SHELL ( 'NONE', ( #133, #177, #84, #300, #174, #80 ) ) ;
#311 = SECURITY_CLASSIFICATION_LEVEL ( 'unclassified' ) ;
#312 = CIRCLE ( 'NONE', #126, 12.69999999999999900 ) ;
ENDSEC;
END-ISO-10303-21;
