ISO-10303-21;
HEADER;
FILE_DESCRIPTION (( 'STEP AP203' ),
    '1' );
FILE_NAME ('371529.STEP',
    '2024-07-02T03:28:00',
    ( 'Windows User' ),
    ( 'P R C' ),
    'SwSTEP 2.0',
    'SolidWorks 2020',
    '' );
FILE_SCHEMA (( 'CONFIG_CONTROL_DESIGN' ));
ENDSEC;

DATA;
#1 = ADVANCED_FACE ( 'NONE', ( #140 ), #126, .T. ) ;
#2 = VERTEX_POINT ( 'NONE', #123 ) ;
#3 = APPLICATION_CONTEXT ( 'configuration controlled 3d designs of mechanical parts and assemblies' ) ;
#4 = COORDINATED_UNIVERSAL_TIME_OFFSET ( 8, 0, .AHEAD. ) ;
#5 = ORIENTED_EDGE ( 'NONE', *, *, #186, .F. ) ;
#6 = EDGE_CURVE ( 'NONE', #29, #33, #147, .T. ) ;
#7 = DIRECTION ( 'NONE',  ( -0.000000000000000000, -0.000000000000000000, -1.000000000000000000 ) ) ;
#8 = AXIS2_PLACEMENT_3D ( 'NONE', #59, #79, #143 ) ;
#9 = DIRECTION ( 'NONE',  ( 0.000000000000000000, 0.000000000000000000, 1.000000000000000000 ) ) ;
#10 = CARTESIAN_POINT ( 'NONE',  ( 9.816313587227853077, 1.734723475976807094E-15, -0.9397403052361077425 ) ) ;
#11 = CC_DESIGN_DATE_AND_TIME_ASSIGNMENT ( #182, #108, ( #28 ) ) ;
#12 = FACE_OUTER_BOUND ( 'NONE', #99, .T. ) ;
#13 = VECTOR ( 'NONE', #115, 1000.000000000000114 ) ;
#14 = PERSON_AND_ORGANIZATION ( #51, #121 ) ;
#15 = PERSON_AND_ORGANIZATION ( #51, #121 ) ;
#16 = ORIENTED_EDGE ( 'NONE', *, *, #6, .T. ) ;
#17 = AXIS2_PLACEMENT_3D ( 'NONE', #24, #188, #139 ) ;
#18 = PRODUCT_RELATED_PRODUCT_CATEGORY ( 'detail', '', ( #171 ) ) ;
#19 = DATE_AND_TIME ( #152, #64 ) ;
#20 = APPLICATION_PROTOCOL_DEFINITION ( 'international standard', 'config_control_design', 1994, #75 ) ;
#21 = CC_DESIGN_APPROVAL ( #154, ( #28 ) ) ;
#22 = UNCERTAINTY_MEASURE_WITH_UNIT (LENGTH_MEASURE( 1.000000000000000082E-05 ), #65, 'distance_accuracy_value', 'NONE');
#23 = CARTESIAN_POINT ( 'NONE',  ( -2.000000000000004441, -3.464101615137755719, 3.172160304957843291 ) ) ;
#24 = CARTESIAN_POINT ( 'NONE',  ( 11.69134295108994515, 6.749999999999978684, 6.000000000000000000 ) ) ;
#25 = CARTESIAN_POINT ( 'NONE',  ( -4.999999999999996447, 1.732050807568870976, -1.069599237605375119 ) ) ;
#26 = AXIS2_PLACEMENT_3D ( 'NONE', #101, #102, #91 ) ;
#27 = CALENDAR_DATE ( 2024, 2, 7 ) ;
#28 = PRODUCT_DEFINITION ( 'Î´Öª', '', #133, #144 ) ;
#29 = VERTEX_POINT ( 'NONE', #93 ) ;
#30 = LOCAL_TIME ( 11, 28, 0.000000000000000000, #177 ) ;
#31 = APPROVAL_DATE_TIME ( #131, #130 ) ;
#32 = COORDINATED_UNIVERSAL_TIME_OFFSET ( 8, 0, .AHEAD. ) ;
#33 = VERTEX_POINT ( 'NONE', #76 ) ;
#34 = APPROVAL_DATE_TIME ( #19, #154 ) ;
#35 = ORIENTED_EDGE ( 'NONE', *, *, #103, .F. ) ;
#36 =( BOUNDED_CURVE ( )  B_SPLINE_CURVE ( 3, ( #23, #161, #25, #41 ),
 .UNSPECIFIED., .F., .T. ) 
 B_SPLINE_CURVE_WITH_KNOTS ( ( 4, 4 ),
 ( 5.235987755982989711, 7.330382858376181865 ),
 .UNSPECIFIED. ) 
 CURVE ( )  GEOMETRIC_REPRESENTATION_ITEM ( )  RATIONAL_B_SPLINE_CURVE ( ( 1.000000000000000000, 0.6666666666666675178, 0.6666666666666675178, 1.000000000000000000 ) ) 
 REPRESENTATION_ITEM ( '' )  );
#37 =( BOUNDED_CURVE ( )  B_SPLINE_CURVE ( 3, ( #113, #63, #87, #159 ),
 .UNSPECIFIED., .F., .F. ) 
 B_SPLINE_CURVE_WITH_KNOTS ( ( 4, 4 ),
 ( 5.235987755982986158, 7.330382858376182753 ),
 .UNSPECIFIED. ) 
 CURVE ( )  GEOMETRIC_REPRESENTATION_ITEM ( )  RATIONAL_B_SPLINE_CURVE ( ( 1.000000000000000000, 0.6666666666666662966, 0.6666666666666662966, 1.000000000000000000 ) ) 
 REPRESENTATION_ITEM ( '' )  );
#38 = CC_DESIGN_PERSON_AND_ORGANIZATION_ASSIGNMENT ( #14, #81, ( #133 ) ) ;
#39 = AXIS2_PLACEMENT_3D ( 'NONE', #72, #165, #137 ) ;
#40 = MANIFOLD_SOLID_BREP ( 'ÇÐ³ý-À­Éì3', #74 ) ;
#41 = CARTESIAN_POINT ( 'NONE',  ( -2.000000000000002665, 3.464101615137746837, 3.172160304957840626 ) ) ;
#42 = PLANE ( 'NONE',  #8 ) ;
#43 = CARTESIAN_POINT ( 'NONE',  ( 4.000000000000000000, 0.000000000000000000, 0.000000000000000000 ) ) ;
#44 = LINE ( 'NONE', #10, #138 ) ;
#45 = VERTEX_POINT ( 'NONE', #43 ) ;
#46 = VECTOR ( 'NONE', #105, 1000.000000000000114 ) ;
#47 =( NAMED_UNIT ( * ) SI_UNIT ( $, .STERADIAN. ) SOLID_ANGLE_UNIT ( ) );
#48 = DATE_AND_TIME ( #162, #67 ) ;
#49 = CC_DESIGN_APPROVAL ( #130, ( #80 ) ) ;
#50 = VERTEX_POINT ( 'NONE', #184 ) ;
#51 = PERSON ( 'Î´Ö¸¶¨', 'Î´Ö¸¶¨', 'Î´Ö¸¶¨', ('Î´Ö¸¶¨'), ('Î´Ö¸¶¨'), ('Î´Ö¸¶¨') ) ;
#52 = CALENDAR_DATE ( 2024, 2, 7 ) ;
#53 = ADVANCED_FACE ( 'NONE', ( #116 ), #42, .F. ) ;
#54 = MECHANICAL_CONTEXT ( 'NONE', #75, 'mechanical' ) ;
#55 = DIRECTION ( 'NONE',  ( -1.000000000000000000, 0.000000000000000000, 0.000000000000000000 ) ) ;
#56 = CC_DESIGN_PERSON_AND_ORGANIZATION_ASSIGNMENT ( #66, #118, ( #80 ) ) ;
#57 = APPROVAL_STATUS ( 'not_yet_approved' ) ;
#58 = LINE ( 'NONE', #127, #46 ) ;
#59 = CARTESIAN_POINT ( 'NONE',  ( 0.000000000000000000, -24.50000000000000000, 6.000000000000000000 ) ) ;
#60 = CARTESIAN_POINT ( 'NONE',  ( 3.999999999999995559, 1.530981598840791568E-16, 3.172160304957862831 ) ) ;
#61 = CARTESIAN_POINT ( 'NONE',  ( 7.073520084914155959, -12.25169617543019740, 16.00139043989909027 ) ) ;
#62 = EDGE_LOOP ( 'NONE', ( #88, #150, #5 ) ) ;
#63 = CARTESIAN_POINT ( 'NONE',  ( 3.999999999999999112, 3.464101615137756163, -1.069599237605377340 ) ) ;
#64 = LOCAL_TIME ( 11, 28, 0.000000000000000000, #32 ) ;
#65 =( LENGTH_UNIT ( ) NAMED_UNIT ( * ) SI_UNIT ( .MILLI., .METRE. ) );
#66 = PERSON_AND_ORGANIZATION ( #51, #121 ) ;
#67 = LOCAL_TIME ( 11, 28, 0.000000000000000000, #194 ) ;
#68 = COORDINATED_UNIVERSAL_TIME_OFFSET ( 8, 0, .AHEAD. ) ;
#69 = APPROVAL_ROLE ( '' ) ;
#70 = ORIENTED_EDGE ( 'NONE', *, *, #78, .T. ) ;
#71 = CC_DESIGN_PERSON_AND_ORGANIZATION_ASSIGNMENT ( #85, #183, ( #171 ) ) ;
#72 = CARTESIAN_POINT ( 'NONE',  ( 0.000000000000000000, 0.000000000000000000, 0.000000000000000000 ) ) ;
#73 = CC_DESIGN_PERSON_AND_ORGANIZATION_ASSIGNMENT ( #84, #134, ( #28 ) ) ;
#74 = CLOSED_SHELL ( 'NONE', ( #92, #53, #178, #1, #107 ) ) ;
#75 = APPLICATION_CONTEXT ( 'configuration controlled 3d designs of mechanical parts and assemblies' ) ;
#76 = CARTESIAN_POINT ( 'NONE',  ( -2.000000000000004441, -3.464101615137755719, 3.172160304957843291 ) ) ;
#77 = DIRECTION ( 'NONE',  ( 0.000000000000000000, -0.6325343505460012672, 0.7745323075116674616 ) ) ;
#78 = EDGE_CURVE ( 'NONE', #29, #2, #44, .T. ) ;
#79 = DIRECTION ( 'NONE',  ( 0.8164400437365592067, 0.000000000000000000, -0.5774302165486713267 ) ) ;
#80 = SECURITY_CLASSIFICATION ( '', '', #106 ) ;
#81 = PERSON_AND_ORGANIZATION_ROLE ( 'design_supplier' ) ;
#82 = APPROVAL_STATUS ( 'not_yet_approved' ) ;
#83 = EDGE_CURVE ( 'NONE', #33, #50, #36, .T. ) ;
#84 = PERSON_AND_ORGANIZATION ( #51, #121 ) ;
#85 = PERSON_AND_ORGANIZATION ( #51, #121 ) ;
#86 = APPROVAL_PERSON_ORGANIZATION ( #15, #130, #129 ) ;
#87 = CARTESIAN_POINT ( 'NONE',  ( 0.9999999999999947820, 5.196152422706634688, -1.069599237605387776 ) ) ;
#88 = ORIENTED_EDGE ( 'NONE', *, *, #83, .F. ) ;
#89 = PLANE ( 'NONE',  #17 ) ;
#90 = EDGE_LOOP ( 'NONE', ( #70, #119, #114 ) ) ;
#91 = DIRECTION ( 'NONE',  ( 1.000000000000000000, 0.000000000000000000, 0.000000000000000000 ) ) ;
#92 = ADVANCED_FACE ( 'NONE', ( #104, #12 ), #172, .T. ) ;
#93 = CARTESIAN_POINT ( 'NONE',  ( 3.999999999999995559, 1.530981598840791568E-16, 3.172160304957862831 ) ) ;
#94 = ORIENTED_EDGE ( 'NONE', *, *, #166, .F. ) ;
#95 = APPROVAL ( #148, 'Î´Ö¸¶¨' ) ;
#96 = CC_DESIGN_APPROVAL ( #95, ( #133 ) ) ;
#97 = DATE_AND_TIME ( #27, #30 ) ;
#98 = PERSON_AND_ORGANIZATION ( #51, #121 ) ;
#99 = EDGE_LOOP ( 'NONE', ( #35, #16, #167 ) ) ;
#100 = AXIS2_PLACEMENT_3D ( 'NONE', #141, #9, #157 ) ;
#101 = CARTESIAN_POINT ( 'NONE',  ( 0.000000000000000000, 0.000000000000000000, 0.000000000000000000 ) ) ;
#102 = DIRECTION ( 'NONE',  ( 0.000000000000000000, 0.000000000000000000, 1.000000000000000000 ) ) ;
#103 = EDGE_CURVE ( 'NONE', #29, #50, #37, .T. ) ;
#104 = FACE_OUTER_BOUND ( 'NONE', #132, .T. ) ;
#105 = DIRECTION ( 'NONE',  ( 0.4082765531884057220, 0.7071557336614135991, 0.5772703218305810235 ) ) ;
#106 = SECURITY_CLASSIFICATION_LEVEL ( 'unclassified' ) ;
#107 = ADVANCED_FACE ( 'NONE', ( #174 ), #89, .F. ) ;
#108 = DATE_TIME_ROLE ( 'creation_date' ) ;
#109 = APPLICATION_PROTOCOL_DEFINITION ( 'international standard', 'config_control_design', 1994, #3 ) ;
#110 = PRODUCT_DEFINITION_SHAPE ( 'NONE', 'NONE',  #28 ) ;
#111 = FACE_OUTER_BOUND ( 'NONE', #180, .T. ) ;
#112 = DIRECTION ( 'NONE',  ( -0.8165531063768112219, -2.220446070541499308E-16, 0.5772703218305786921 ) ) ;
#113 = CARTESIAN_POINT ( 'NONE',  ( 3.999999999999995559, 1.530981598840791568E-16, 3.172160304957862831 ) ) ;
#114 = ORIENTED_EDGE ( 'NONE', *, *, #6, .F. ) ;
#115 = DIRECTION ( 'NONE',  ( 0.4082765531884057775, -0.7071557336614134881, 0.5772703218305811346 ) ) ;
#116 = FACE_OUTER_BOUND ( 'NONE', #62, .T. ) ;
#117 = PERSON_AND_ORGANIZATION ( #51, #121 ) ;
#118 = PERSON_AND_ORGANIZATION_ROLE ( 'classification_officer' ) ;
#119 = ORIENTED_EDGE ( 'NONE', *, *, #125, .F. ) ;
#120 = SHAPE_DEFINITION_REPRESENTATION ( #110, #191 ) ;
#121 = ORGANIZATION ( 'Î´Ö¸¶¨', 'Î´Ö¸¶¨', '' ) ;
#122 = AXIS2_PLACEMENT_3D ( 'NONE', #160, #7, #55 ) ;
#123 = CARTESIAN_POINT ( 'NONE',  ( 1.734723475976807094E-15, -3.362838757637161916E-17, 6.000000000000000000 ) ) ;
#124 = LINE ( 'NONE', #61, #13 ) ;
#125 = EDGE_CURVE ( 'NONE', #33, #2, #58, .T. ) ;
#126 = PLANE ( 'NONE',  #175 ) ;
#127 = CARTESIAN_POINT ( 'NONE',  ( -7.073520084914155071, -12.25169617543020273, -4.001390439899090268 ) ) ;
#128 = LOCAL_TIME ( 11, 28, 0.000000000000000000, #68 ) ;
#129 = APPROVAL_ROLE ( '' ) ;
#130 = APPROVAL ( #82, 'Î´Ö¸¶¨' ) ;
#131 = DATE_AND_TIME ( #151, #128 ) ;
#132 = EDGE_LOOP ( 'NONE', ( #187 ) ) ;
#133 = PRODUCT_DEFINITION_FORMATION_WITH_SPECIFIED_SOURCE ( 'ÈÎºÎ', '', #171, .NOT_KNOWN. ) ;
#134 = PERSON_AND_ORGANIZATION_ROLE ( 'creator' ) ;
#135 = ORIENTED_EDGE ( 'NONE', *, *, #78, .F. ) ;
#136 = APPROVAL_PERSON_ORGANIZATION ( #169, #154, #69 ) ;
#137 = DIRECTION ( 'NONE',  ( 1.000000000000000000, 0.000000000000000000, 0.000000000000000000 ) ) ;
#138 = VECTOR ( 'NONE', #112, 1000.000000000000114 ) ;
#139 = DIRECTION ( 'NONE',  ( 0.000000000000000000, 0.6325343505460013782, 0.7745323075116675726 ) ) ;
#140 = FACE_OUTER_BOUND ( 'NONE', #142, .T. ) ;
#141 = CARTESIAN_POINT ( 'NONE',  ( 0.000000000000000000, 0.000000000000000000, 0.000000000000000000 ) ) ;
#142 = EDGE_LOOP ( 'NONE', ( #135, #179, #153 ) ) ;
#143 = DIRECTION ( 'NONE',  ( -0.5774302165486712157, 0.000000000000000000, -0.8164400437365590957 ) ) ;
#144 = DESIGN_CONTEXT ( 'detailed design', #3, 'design' ) ;
#145 = CARTESIAN_POINT ( 'NONE',  ( -2.000000000000004441, -3.464101615137755719, 3.172160304957843291 ) ) ;
#146 = LOCAL_TIME ( 11, 28, 0.000000000000000000, #4 ) ;
#147 =( BOUNDED_CURVE ( )  B_SPLINE_CURVE ( 3, ( #60, #173, #189, #145 ),
 .UNSPECIFIED., .F., .F. ) 
 B_SPLINE_CURVE_WITH_KNOTS ( ( 4, 4 ),
 ( 5.235987755982986158, 7.330382858376182753 ),
 .UNSPECIFIED. ) 
 CURVE ( )  GEOMETRIC_REPRESENTATION_ITEM ( )  RATIONAL_B_SPLINE_CURVE ( ( 1.000000000000000000, 0.6666666666666662966, 0.6666666666666662966, 1.000000000000000000 ) ) 
 REPRESENTATION_ITEM ( '' )  );
#148 = APPROVAL_STATUS ( 'not_yet_approved' ) ;
#149 = DATE_TIME_ROLE ( 'classification_date' ) ;
#150 = ORIENTED_EDGE ( 'NONE', *, *, #125, .T. ) ;
#151 = CALENDAR_DATE ( 2024, 2, 7 ) ;
#152 = CALENDAR_DATE ( 2024, 2, 7 ) ;
#153 = ORIENTED_EDGE ( 'NONE', *, *, #186, .T. ) ;
#154 = APPROVAL ( #57, 'Î´Ö¸¶¨' ) ;
#155 = CC_DESIGN_DATE_AND_TIME_ASSIGNMENT ( #97, #149, ( #80 ) ) ;
#156 =( GEOMETRIC_REPRESENTATION_CONTEXT ( 3 ) GLOBAL_UNCERTAINTY_ASSIGNED_CONTEXT ( ( #22 ) ) GLOBAL_UNIT_ASSIGNED_CONTEXT ( ( #65, #192, #47 ) ) REPRESENTATION_CONTEXT ( 'NONE', 'WORKASPACE' ) );
#157 = DIRECTION ( 'NONE',  ( 1.000000000000000000, 0.000000000000000000, -0.000000000000000000 ) ) ;
#158 = DIRECTION ( 'NONE',  ( 0.4082200218682778270, 0.7070578185427395246, 0.5774302165486712157 ) ) ;
#159 = CARTESIAN_POINT ( 'NONE',  ( -2.000000000000002665, 3.464101615137746837, 3.172160304957840626 ) ) ;
#160 = CARTESIAN_POINT ( 'NONE',  ( 0.000000000000000000, 0.000000000000000000, 6.000000000000000000 ) ) ;
#161 = CARTESIAN_POINT ( 'NONE',  ( -4.999999999999993783, -1.732050807568876083, -1.069599237605372677 ) ) ;
#162 = CALENDAR_DATE ( 2024, 2, 7 ) ;
#163 = APPROVAL_ROLE ( '' ) ;
#164 = CIRCLE ( 'NONE', #26, 4.000000000000000000 ) ;
#165 = DIRECTION ( 'NONE',  ( 0.000000000000000000, 0.000000000000000000, 1.000000000000000000 ) ) ;
#166 = EDGE_CURVE ( 'NONE', #45, #45, #164, .T. ) ;
#167 = ORIENTED_EDGE ( 'NONE', *, *, #83, .T. ) ;
#168 = CC_DESIGN_PERSON_AND_ORGANIZATION_ASSIGNMENT ( #117, #176, ( #133 ) ) ;
#169 = PERSON_AND_ORGANIZATION ( #51, #121 ) ;
#170 = APPROVAL_PERSON_ORGANIZATION ( #98, #95, #163 ) ;
#171 = PRODUCT ( '371529', '371529', '', ( #54 ) ) ;
#172 = CYLINDRICAL_SURFACE ( 'NONE', #122, 4.000000000000000000 ) ;
#173 = CARTESIAN_POINT ( 'NONE',  ( 4.000000000000001776, -3.464101615137757495, -1.069599237605383335 ) ) ;
#174 = FACE_OUTER_BOUND ( 'NONE', #90, .T. ) ;
#175 = AXIS2_PLACEMENT_3D ( 'NONE', #190, #158, #77 ) ;
#176 = PERSON_AND_ORGANIZATION_ROLE ( 'creator' ) ;
#177 = COORDINATED_UNIVERSAL_TIME_OFFSET ( 8, 0, .AHEAD. ) ;
#178 = ADVANCED_FACE ( 'NONE', ( #111 ), #185, .F. ) ;
#179 = ORIENTED_EDGE ( 'NONE', *, *, #103, .T. ) ;
#180 = EDGE_LOOP ( 'NONE', ( #94 ) ) ;
#181 = CC_DESIGN_SECURITY_CLASSIFICATION ( #80, ( #133 ) ) ;
#182 = DATE_AND_TIME ( #52, #146 ) ;
#183 = PERSON_AND_ORGANIZATION_ROLE ( 'design_owner' ) ;
#184 = CARTESIAN_POINT ( 'NONE',  ( -2.000000000000002665, 3.464101615137746837, 3.172160304957840626 ) ) ;
#185 = PLANE ( 'NONE',  #100 ) ;
#186 = EDGE_CURVE ( 'NONE', #50, #2, #124, .T. ) ;
#187 = ORIENTED_EDGE ( 'NONE', *, *, #166, .T. ) ;
#188 = DIRECTION ( 'NONE',  ( -0.4082200218682780490, 0.7070578185427394136, -0.5774302165486712157 ) ) ;
#189 = CARTESIAN_POINT ( 'NONE',  ( 0.9999999999999977796, -5.196152422706637353, -1.069599237605393327 ) ) ;
#190 = CARTESIAN_POINT ( 'NONE',  ( 14.72243186433548878, -8.499999999999966249, 6.000000000000000000 ) ) ;
#191 = ADVANCED_BREP_SHAPE_REPRESENTATION ( '371529', ( #40, #39 ), #156 ) ;
#192 =( NAMED_UNIT ( * ) PLANE_ANGLE_UNIT ( ) SI_UNIT ( $, .RADIAN. ) );
#193 = APPROVAL_DATE_TIME ( #48, #95 ) ;
#194 = COORDINATED_UNIVERSAL_TIME_OFFSET ( 8, 0, .AHEAD. ) ;
ENDSEC;
END-ISO-10303-21;
