ISO-10303-21;
HEADER;
FILE_DESCRIPTION (( 'STEP AP214' ),
    '1' );
FILE_NAME ('GP16-012-2.STEP',
    '2024-08-13T02:31:03',
    ( 'Windows User' ),
    ( 'P R C' ),
    'SwSTEP 2.0',
    'SolidWorks 2022',
    '' );
FILE_SCHEMA (( 'AUTOMOTIVE_DESIGN' ));
ENDSEC;

DATA;
#1 =( NAMED_UNIT ( * ) PLANE_ANGLE_UNIT ( ) SI_UNIT ( $, .RADIAN. ) );
#2 = PLANE ( 'NONE',  #48 ) ;
#3 = AXIS2_PLACEMENT_3D ( 'NONE', #229, #309, #258 ) ;
#4 = CARTESIAN_POINT ( 'NONE',  ( -6.349999999999999645, 0.000000000000000000, -0.5700000000000019496 ) ) ;
#5 = DIRECTION ( 'NONE',  ( -1.000000000000000000, 0.000000000000000000, 0.000000000000000000 ) ) ;
#6 = PLANE ( 'NONE',  #160 ) ;
#7 = CARTESIAN_POINT ( 'NONE',  ( 4.235462525477922568, -1.310016928385307589, 6.269017013437426122 ) ) ;
#8 = CIRCLE ( 'NONE', #295, 6.349999999999999645 ) ;
#9 = VERTEX_POINT ( 'NONE', #243 ) ;
#10 = CARTESIAN_POINT ( 'NONE',  ( -1.378444896918001428, 6.198579649093872490, 4.913675856748705328 ) ) ;
#11 = CONICAL_SURFACE ( 'NONE', #117, 6.250000000000000888, 0.7853981633974526089 ) ;
#12 = EDGE_CURVE ( 'NONE', #248, #100, #325, .T. ) ;
#13 = CLOSED_SHELL ( 'NONE', ( #253, #213, #173, #122, #312, #56, #335, #320, #150, #84, #208, #275 ) ) ;
#14 = EDGE_CURVE ( 'NONE', #323, #299, #357, .T. ) ;
#15 = VERTEX_POINT ( 'NONE', #21 ) ;
#16 = CYLINDRICAL_SURFACE ( 'NONE', #99, 6.349999999999999645 ) ;
#17 = EDGE_LOOP ( 'NONE', ( #318, #54, #155, #272 ) ) ;
#18 = ORIENTED_EDGE ( 'NONE', *, *, #268, .T. ) ;
#19 = ORIENTED_EDGE ( 'NONE', *, *, #186, .F. ) ;
#20 = DIRECTION ( 'NONE',  ( -1.000000000000000000, 0.000000000000000000, 0.000000000000000000 ) ) ;
#21 = CARTESIAN_POINT ( 'NONE',  ( 6.057349891955523091, -1.905521526098936880, 4.913675856748682236 ) ) ;
#22 = EDGE_LOOP ( 'NONE', ( #242, #40, #328, #104, #102, #106 ) ) ;
#23 = CARTESIAN_POINT ( 'NONE',  ( 6.013412275601540458, -2.039944313858764513, 4.913675856748660919 ) ) ;
#24 = CARTESIAN_POINT ( 'NONE',  ( -6.250000000000000888, 7.654042494670958593E-16, -0.6699999999999995959 ) ) ;
#25 = EDGE_CURVE ( 'NONE', #361, #100, #251, .T. ) ;
#26 = AXIS2_PLACEMENT_3D ( 'NONE', #158, #87, #131 ) ;
#27 = PLANE ( 'NONE',  #79 ) ;
#28 = CARTESIAN_POINT ( 'NONE',  ( -4.710776659013159673, -4.258321931798978888, 4.913304656743202159 ) ) ;
#29 = EDGE_LOOP ( 'NONE', ( #351, #247, #168, #279 ) ) ;
#30 = VECTOR ( 'NONE', #225, 1000.000000000000114 ) ;
#31 = CARTESIAN_POINT ( 'NONE',  ( 6.350000000000001421, -0.6476245182123612221, 3.417607508736826727 ) ) ;
#32 = CARTESIAN_POINT ( 'NONE',  ( 6.043203299936918071, -1.950491292360698736, 4.913304656743207488 ) ) ;
#33 = CARTESIAN_POINT ( 'NONE',  ( -3.252239202108292648, -3.013009679648221972, 6.269017013437423458 ) ) ;
#34 =( LENGTH_UNIT ( ) NAMED_UNIT ( * ) SI_UNIT ( .MILLI., .METRE. ) );
#35 =( LENGTH_UNIT ( ) NAMED_UNIT ( * ) SI_UNIT ( .MILLI., .METRE. ) );
#36 = CARTESIAN_POINT ( 'NONE',  ( -4.773349735908087865, -4.187795637170729002, 4.913675856748678683 ) ) ;
#37 = CARTESIAN_POINT ( 'NONE',  ( -6.349999999999999645, -1.558203443857914650, 1.638918488961059960 ) ) ;
#38 = DIRECTION ( 'NONE',  ( 0.1683570817218978666, -0.7989509119468806153, 0.5773502691896265082 ) ) ;
#39 = EDGE_CURVE ( 'NONE', #91, #169, #139, .T. ) ;
#40 = ORIENTED_EDGE ( 'NONE', *, *, #39, .T. ) ;
#41 = FACE_OUTER_BOUND ( 'NONE', #264, .T. ) ;
#42 = CARTESIAN_POINT ( 'NONE',  ( -4.252298233650111392, 1.389912019579999214, 3.163376020178195969 ) ) ;
#43 =( BOUNDED_CURVE ( )  B_SPLINE_CURVE ( 3, ( #231, #28, #255, #36 ),
 .UNSPECIFIED., .F., .T. ) 
 B_SPLINE_CURVE_WITH_KNOTS ( ( 4, 4 ),
 ( 6.272049537170585332, 6.294321077188586244 ),
 .UNSPECIFIED. ) 
 CURVE ( )  GEOMETRIC_REPRESENTATION_ITEM ( )  RATIONAL_B_SPLINE_CURVE ( ( 1.000000000000000000, 0.9999586653025819283, 0.9999586653025819283, 1.000000000000000000 ) ) 
 REPRESENTATION_ITEM ( '' )  );
#44 = VECTOR ( 'NONE', #353, 1000.000000000000227 ) ;
#45 = ORIENTED_EDGE ( 'NONE', *, *, #237, .T. ) ;
#46 = ORIENTED_EDGE ( 'NONE', *, *, #223, .F. ) ;
#47 = DIRECTION ( 'NONE',  ( -0.6077332452617947300, -0.5452769656516170960, -0.5773502691896250649 ) ) ;
#48 = AXIS2_PLACEMENT_3D ( 'NONE', #305, #287, #280 ) ;
#49 = APPLICATION_CONTEXT ( 'automotive_design' ) ;
#50 = EDGE_LOOP ( 'NONE', ( #271, #46, #214, #355 ) ) ;
#51 = ORIENTED_EDGE ( 'NONE', *, *, #90, .T. ) ;
#52 = PLANE ( 'NONE',  #26 ) ;
#53 = FACE_OUTER_BOUND ( 'NONE', #218, .T. ) ;
#54 = ORIENTED_EDGE ( 'NONE', *, *, #14, .T. ) ;
#55 = STYLED_ITEM ( 'NONE', ( #182 ), #73 ) ;
#56 = ADVANCED_FACE ( 'NONE', ( #53 ), #27, .T. ) ;
#57 = CARTESIAN_POINT ( 'NONE',  ( 0.03880451634919097198, -0.01268369731476594146, 9.374658006696643398 ) ) ;
#58 = FACE_OUTER_BOUND ( 'NONE', #29, .T. ) ;
#59 = EDGE_CURVE ( 'NONE', #100, #135, #221, .T. ) ;
#60 = LINE ( 'NONE', #170, #98 ) ;
#61 = EDGE_CURVE ( 'NONE', #299, #169, #179, .T. ) ;
#62 = DIRECTION ( 'NONE',  ( 0.6077332452617947300, 0.5452769656516172070, 0.5773502691896250649 ) ) ;
#63 = SURFACE_STYLE_FILL_AREA ( #307 ) ;
#64 = FACE_OUTER_BOUND ( 'NONE', #50, .T. ) ;
#65 = STYLED_ITEM ( 'NONE', ( #202 ), #267 ) ;
#66 = APPLICATION_CONTEXT ( 'automotive_design' ) ;
#67 = DIRECTION ( 'NONE',  ( -0.6077332452617947300, -0.5452769656516170960, -0.5773502691896250649 ) ) ;
#68 = DIRECTION ( 'NONE',  ( -0.000000000000000000, -0.000000000000000000, -1.000000000000000000 ) ) ;
#69 = CARTESIAN_POINT ( 'NONE',  ( -6.250000000000000000, 7.715274834628325378E-16, -0.6700000000000000400 ) ) ;
#70 = PRODUCT_CONTEXT ( 'NONE', #49, 'mechanical' ) ;
#71 = VECTOR ( 'NONE', #298, 1000.000000000000000 ) ;
#72 = PRESENTATION_LAYER_ASSIGNMENT (  '', '', ( #65 ) ) ;
#73 = ADVANCED_BREP_SHAPE_REPRESENTATION ( 'GP16-012-2', ( #267, #129 ), #166 ) ;
#74 = DIRECTION ( 'NONE',  ( -1.000000000000000000, 0.000000000000000000, 0.000000000000000000 ) ) ;
#75 = ORIENTED_EDGE ( 'NONE', *, *, #25, .F. ) ;
#76 = CARTESIAN_POINT ( 'NONE',  ( 3.004345022847746627, 7.072882950397803903, -0.3522861678321563828 ) ) ;
#77 = CIRCLE ( 'NONE', #340, 6.250000000000000000 ) ;
#78 = ORIENTED_EDGE ( 'NONE', *, *, #348, .F. ) ;
#79 = AXIS2_PLACEMENT_3D ( 'NONE', #198, #108, #360 ) ;
#80 = ORIENTED_EDGE ( 'NONE', *, *, #212, .F. ) ;
#81 = CARTESIAN_POINT ( 'NONE',  ( -6.349999999999999645, 0.000000000000000000, 0.9542810377841225433 ) ) ;
#82 = ORIENTED_EDGE ( 'NONE', *, *, #61, .T. ) ;
#83 = VERTEX_POINT ( 'NONE', #303 ) ;
#84 = ADVANCED_FACE ( 'NONE', ( #58 ), #252, .F. ) ;
#85 = CARTESIAN_POINT ( 'NONE',  ( 4.274947424087383041, -7.164645908787123929, -1.671065411290782565 ) ) ;
#86 = DIRECTION ( 'NONE',  ( 0.000000000000000000, 0.000000000000000000, 1.000000000000000000 ) ) ;
#87 = DIRECTION ( 'NONE',  ( 0.1190464341463334241, -0.5649436076728147071, -0.8164965809277265896 ) ) ;
#88 = CARTESIAN_POINT ( 'NONE',  ( 0.000000000000000000, 0.000000000000000000, -0.5700000000000019496 ) ) ;
#89 = EDGE_CURVE ( 'NONE', #248, #9, #60, .T. ) ;
#90 = EDGE_CURVE ( 'NONE', #323, #194, #293, .T. ) ;
#91 = VERTEX_POINT ( 'NONE', #195 ) ;
#92 = UNCERTAINTY_MEASURE_WITH_UNIT (LENGTH_MEASURE( 1.000000000000000082E-05 ), #257, 'distance_accuracy_value', 'NONE');
#93 = CARTESIAN_POINT ( 'NONE',  ( 4.191524909123932829, -1.444439716145159647, 6.269017013437427011 ) ) ;
#94 = EDGE_CURVE ( 'NONE', #91, #361, #249, .T. ) ;
#95 = CARTESIAN_POINT ( 'NONE',  ( 6.013412275601540458, -2.039944313858764513, 4.913675856748660919 ) ) ;
#96 = PLANE ( 'NONE',  #206 ) ;
#97 =( NAMED_UNIT ( * ) SI_UNIT ( $, .STERADIAN. ) SOLID_ANGLE_UNIT ( ) );
#98 = VECTOR ( 'NONE', #47, 1000.000000000000114 ) ;
#99 = AXIS2_PLACEMENT_3D ( 'NONE', #156, #356, #107 ) ;
#100 = VERTEX_POINT ( 'NONE', #185 ) ;
#101 = CARTESIAN_POINT ( 'NONE',  ( 6.349999999999999645, 7.776507174585692163E-16, -0.5700000000000019496 ) ) ;
#102 = ORIENTED_EDGE ( 'NONE', *, *, #157, .F. ) ;
#103 = CARTESIAN_POINT ( 'NONE',  ( -1.332426640923746186, 6.208813224159672295, 4.913304656743201271 ) ) ;
#104 = ORIENTED_EDGE ( 'NONE', *, *, #105, .F. ) ;
#105 = EDGE_CURVE ( 'NONE', #83, #299, #110, .T. ) ;
#106 = ORIENTED_EDGE ( 'NONE', *, *, #186, .T. ) ;
#107 = DIRECTION ( 'NONE',  ( -1.000000000000000000, 0.000000000000000000, 0.000000000000000000 ) ) ;
#108 = DIRECTION ( 'NONE',  ( 0.6077332452617939529, 0.5452769656516166519, 0.5773502691896265082 ) ) ;
#109 = ORIENTED_EDGE ( 'NONE', *, *, #350, .T. ) ;
#110 = LINE ( 'NONE', #224, #332 ) ;
#111 = DIRECTION ( 'NONE',  ( 0.3106858647307911836, 0.9505126477098979620, -0.000000000000000000 ) ) ;
#112 = DIRECTION ( 'NONE',  ( -1.000000000000000000, 0.000000000000000000, 0.000000000000000000 ) ) ;
#113 =( NAMED_UNIT ( * ) SI_UNIT ( $, .STERADIAN. ) SOLID_ANGLE_UNIT ( ) );
#114 = MECHANICAL_DESIGN_GEOMETRIC_PRESENTATION_REPRESENTATION (  '', ( #65 ), #143 ) ;
#115 = SURFACE_SIDE_STYLE ('',( #339 ) ) ;
#116 = FACE_OUTER_BOUND ( 'NONE', #296, .T. ) ;
#117 = AXIS2_PLACEMENT_3D ( 'NONE', #259, #120, #126 ) ;
#118 = CARTESIAN_POINT ( 'NONE',  ( 6.250000000000000888, 0.000000000000000000, -0.6699999999999995959 ) ) ;
#119 = CARTESIAN_POINT ( 'NONE',  ( -1.378444896918001428, 6.198579649093872490, 4.913675856748705328 ) ) ;
#120 = DIRECTION ( 'NONE',  ( 0.000000000000000000, 0.000000000000000000, 1.000000000000000000 ) ) ;
#121 = DIRECTION ( 'NONE',  ( 0.000000000000000000, 0.000000000000000000, 1.000000000000000000 ) ) ;
#122 = ADVANCED_FACE ( 'NONE', ( #292 ), #216, .T. ) ;
#123 = LINE ( 'NONE', #7, #367 ) ;
#124 = SURFACE_STYLE_USAGE ( .BOTH. , #284 ) ;
#125 = EDGE_CURVE ( 'NONE', #9, #130, #342, .T. ) ;
#126 = DIRECTION ( 'NONE',  ( 1.000000000000000000, 0.000000000000000000, 0.000000000000000000 ) ) ;
#127 = ORIENTED_EDGE ( 'NONE', *, *, #59, .F. ) ;
#128 = DIRECTION ( 'NONE',  ( -0.7760903269836916252, 0.2536739462952641300, 0.5773502691896265082 ) ) ;
#129 = AXIS2_PLACEMENT_3D ( 'NONE', #285, #121, #230 ) ;
#130 = VERTEX_POINT ( 'NONE', #23 ) ;
#131 = DIRECTION ( 'NONE',  ( -0.1683570817218979776, 0.7989509119468816145, -0.5773502691896250649 ) ) ;
#132 = ORIENTED_EDGE ( 'NONE', *, *, #157, .T. ) ;
#133 = ORIENTED_EDGE ( 'NONE', *, *, #125, .F. ) ;
#134 = EDGE_LOOP ( 'NONE', ( #19, #78, #127, #75 ) ) ;
#135 = VERTEX_POINT ( 'NONE', #167 ) ;
#136 = CARTESIAN_POINT ( 'NONE',  ( -4.773349735908087865, -4.187795637170729002, 4.913675856748678683 ) ) ;
#137 = DIRECTION ( 'NONE',  ( -0.7071067811865505703, 8.659560562354971069E-17, 0.7071067811865444641 ) ) ;
#138 = PRODUCT_RELATED_PRODUCT_CATEGORY ( 'part', '', ( #321 ) ) ;
#139 = LINE ( 'NONE', #193, #71 ) ;
#140 = CARTESIAN_POINT ( 'NONE',  ( -3.346683942978853743, -2.907747193824004928, 6.269017013437424346 ) ) ;
#141 = AXIS2_PLACEMENT_3D ( 'NONE', #161, #250, #20 ) ;
#142 = CYLINDRICAL_SURFACE ( 'NONE', #191, 6.349999999999999645 ) ;
#143 =( GEOMETRIC_REPRESENTATION_CONTEXT ( 3 ) GLOBAL_UNCERTAINTY_ASSIGNED_CONTEXT ( ( #92 ) ) GLOBAL_UNIT_ASSIGNED_CONTEXT ( ( #257, #260, #113 ) ) REPRESENTATION_CONTEXT ( 'NONE', 'WORKASPACE' ) );
#144 = CARTESIAN_POINT ( 'NONE',  ( 6.057349891955523091, -1.905521526098936880, 4.913675856748682236 ) ) ;
#145 = EDGE_CURVE ( 'NONE', #194, #323, #77, .T. ) ;
#146 = DIRECTION ( 'NONE',  ( -0.1683570817218979776, 0.7989509119468816145, -0.5773502691896250649 ) ) ;
#147 = CARTESIAN_POINT ( 'NONE',  ( 0.01683570817219707388, -0.07989509119469048737, 9.374658006696643398 ) ) ;
#148 = PRODUCT_DEFINITION_FORMATION_WITH_SPECIFIED_SOURCE ( 'ÈÎºÎ', '', #321, .NOT_KNOWN. ) ;
#149 = DIRECTION ( 'NONE',  ( 0.000000000000000000, -0.5857106597838069861, -0.8105202175242870455 ) ) ;
#150 = ADVANCED_FACE ( 'NONE', ( #192 ), #52, .F. ) ;
#151 = EDGE_CURVE ( 'NONE', #248, #135, #240, .T. ) ;
#152 =( NAMED_UNIT ( * ) SI_UNIT ( $, .STERADIAN. ) SOLID_ANGLE_UNIT ( ) );
#153 = CARTESIAN_POINT ( 'NONE',  ( 0.9224499988434438080, -4.377554304598696433, 3.163376020178197301 ) ) ;
#154 = PRODUCT_DEFINITION ( 'Î´Öª', '', #148, #172 ) ;
#155 = ORIENTED_EDGE ( 'NONE', *, *, #187, .F. ) ;
#156 = CARTESIAN_POINT ( 'NONE',  ( 0.000000000000000000, 0.000000000000000000, 5.000000000000000000 ) ) ;
#157 = EDGE_CURVE ( 'NONE', #245, #83, #283, .T. ) ;
#158 = CARTESIAN_POINT ( 'NONE',  ( -0.9832233233696184849, 4.323026608033527118, 6.269017013437423458 ) ) ;
#159 = ORIENTED_EDGE ( 'NONE', *, *, #125, .T. ) ;
#160 = AXIS2_PLACEMENT_3D ( 'NONE', #33, #311, #67 ) ;
#161 = CARTESIAN_POINT ( 'NONE',  ( 0.000000000000000000, 0.000000000000000000, -0.6700000000000000400 ) ) ;
#162 = ORIENTED_EDGE ( 'NONE', *, *, #348, .T. ) ;
#163 = CARTESIAN_POINT ( 'NONE',  ( 0.000000000000000000, 0.000000000000000000, -0.6700000000000000400 ) ) ;
#164 = ORIENTED_EDGE ( 'NONE', *, *, #14, .F. ) ;
#165 = ORIENTED_EDGE ( 'NONE', *, *, #61, .F. ) ;
#166 =( GEOMETRIC_REPRESENTATION_CONTEXT ( 3 ) GLOBAL_UNCERTAINTY_ASSIGNED_CONTEXT ( ( #306 ) ) GLOBAL_UNIT_ASSIGNED_CONTEXT ( ( #35, #1, #152 ) ) REPRESENTATION_CONTEXT ( 'NONE', 'WORKASPACE' ) );
#167 = CARTESIAN_POINT ( 'NONE',  ( -0.07760903269836591511, 0.02536739462952482260, 9.374658006696643398 ) ) ;
#168 = ORIENTED_EDGE ( 'NONE', *, *, #12, .F. ) ;
#169 = VERTEX_POINT ( 'NONE', #101 ) ;
#170 = CARTESIAN_POINT ( 'NONE',  ( -3.252239202108292648, -3.013009679648221528, 6.269017013437423458 ) ) ;
#171 = CARTESIAN_POINT ( 'NONE',  ( 6.349999999999999645, 7.776507174585692163E-16, 2.805960210696957891 ) ) ;
#172 = PRODUCT_DEFINITION_CONTEXT ( 'detailed design', #66, 'design' ) ;
#173 = ADVANCED_FACE ( 'NONE', ( #41 ), #16, .T. ) ;
#174 = CARTESIAN_POINT ( 'NONE',  ( 6.251690436881997215, -1.287743840205802348, 4.125649633596846222 ) ) ;
#175 = COLOUR_RGB ( '',1.000000000000000000, 1.000000000000000000, 1.000000000000000000 ) ;
#176 = CARTESIAN_POINT ( 'NONE',  ( -6.349999999999999645, 0.000000000000000000, 0.9542810377841225433 ) ) ;
#177 = DIRECTION ( 'NONE',  ( -0.7760903269836925134, 0.2536739462952641855, 0.5773502691896250649 ) ) ;
#178 = FACE_OUTER_BOUND ( 'NONE', #301, .T. ) ;
#179 = CIRCLE ( 'NONE', #236, 6.349999999999999645 ) ;
#180 = DIRECTION ( 'NONE',  ( 0.7760903269836925134, -0.2536739462952641300, -0.5773502691896251759 ) ) ;
#181 = LINE ( 'NONE', #343, #241 ) ;
#182 = PRESENTATION_STYLE_ASSIGNMENT (( #124 ) ) ;
#183 = CARTESIAN_POINT ( 'NONE',  ( -1.378444896918001428, 6.198579649093872490, 4.913675856748705328 ) ) ;
#184 = ORIENTED_EDGE ( 'NONE', *, *, #145, .F. ) ;
#185 = CARTESIAN_POINT ( 'NONE',  ( 0.06077332452618703501, 0.05452769656516021773, 9.374658006696643398 ) ) ;
#186 = EDGE_CURVE ( 'NONE', #245, #361, #244, .T. ) ;
#187 = EDGE_CURVE ( 'NONE', #169, #299, #8, .T. ) ;
#188 = VECTOR ( 'NONE', #111, 1000.000000000000114 ) ;
#189 = VERTEX_POINT ( 'NONE', #136 ) ;
#190 = EDGE_LOOP ( 'NONE', ( #215, #51 ) ) ;
#191 = AXIS2_PLACEMENT_3D ( 'NONE', #334, #68, #5 ) ;
#192 = FACE_OUTER_BOUND ( 'NONE', #134, .T. ) ;
#193 = CARTESIAN_POINT ( 'NONE',  ( 6.349999999999999645, 7.776507174585692163E-16, 5.000000000000000000 ) ) ;
#194 = VERTEX_POINT ( 'NONE', #319 ) ;
#195 = CARTESIAN_POINT ( 'NONE',  ( 6.349999999999999645, 7.776507174585692163E-16, 2.805960210696957891 ) ) ;
#196 = ORIENTED_EDGE ( 'NONE', *, *, #151, .F. ) ;
#197 = ORIENTED_EDGE ( 'NONE', *, *, #277, .T. ) ;
#198 = CARTESIAN_POINT ( 'NONE',  ( 3.329848234806672025, 2.987642285018697219, 3.163376020178199077 ) ) ;
#199 = LINE ( 'NONE', #140, #345 ) ;
#200 = CARTESIAN_POINT ( 'NONE',  ( 6.057349891955523091, -1.905521526098936880, 4.913675856748682236 ) ) ;
#201 = FILL_AREA_STYLE_COLOUR ( '', #209 ) ;
#202 = PRESENTATION_STYLE_ASSIGNMENT (( #366 ) ) ;
#203 = CARTESIAN_POINT ( 'NONE',  ( -5.800977701894320937, -3.016480676976988295, 3.017661823563334345 ) ) ;
#204 = FILL_AREA_STYLE_COLOUR ( '', #175 ) ;
#205 = PLANE ( 'NONE',  #3 ) ;
#206 = AXIS2_PLACEMENT_3D ( 'NONE', #153, #38, #149 ) ;
#207 = CARTESIAN_POINT ( 'NONE',  ( 6.350000000000001421, 4.327731766911850464, -1.281354842135791872 ) ) ;
#208 = ADVANCED_FACE ( 'NONE', ( #228 ), #2, .T. ) ;
#209 = COLOUR_RGB ( '',1.000000000000000000, 1.000000000000000000, 1.000000000000000000 ) ;
#210 = ORIENTED_EDGE ( 'NONE', *, *, #349, .T. ) ;
#211 = CARTESIAN_POINT ( 'NONE',  ( -1.240062539693429722, 6.227739951029515275, 4.913675856748689341 ) ) ;
#212 = EDGE_CURVE ( 'NONE', #15, #91, #313, .T. ) ;
#213 = ADVANCED_FACE ( 'NONE', ( #310 ), #142, .T. ) ;
#214 = ORIENTED_EDGE ( 'NONE', *, *, #237, .F. ) ;
#215 = ORIENTED_EDGE ( 'NONE', *, *, #145, .T. ) ;
#216 = PLANE ( 'NONE',  #281 ) ;
#217 = EDGE_LOOP ( 'NONE', ( #132, #109, #266, #162 ) ) ;
#218 = EDGE_LOOP ( 'NONE', ( #304, #197, #290, #261 ) ) ;
#219 = CONICAL_SURFACE ( 'NONE', #263, 6.250000000000000888, 0.7853981633974526089 ) ;
#220 = CARTESIAN_POINT ( 'NONE',  ( -1.286297281772450285, 6.218533726598914235, 4.913304656743201271 ) ) ;
#221 = LINE ( 'NONE', #330, #30 ) ;
#222 = EDGE_LOOP ( 'NONE', ( #269, #322, #196 ) ) ;
#223 = EDGE_CURVE ( 'NONE', #189, #135, #199, .T. ) ;
#224 = CARTESIAN_POINT ( 'NONE',  ( -6.349999999999999645, 0.000000000000000000, 5.000000000000000000 ) ) ;
#225 = DIRECTION ( 'NONE',  ( -0.9785110319005749790, -0.2061944724013522467, -0.000000000000000000 ) ) ;
#226 = DIRECTION ( 'NONE',  ( 0.7760903269836925134, -0.2536739462952641855, -0.5773502691896251759 ) ) ;
#227 = VECTOR ( 'NONE', #233, 1000.000000000000000 ) ;
#228 = FACE_OUTER_BOUND ( 'NONE', #222, .T. ) ;
#229 = CARTESIAN_POINT ( 'NONE',  ( 0.000000000000000000, 0.000000000000000000, -0.6700000000000000400 ) ) ;
#230 = DIRECTION ( 'NONE',  ( 1.000000000000000000, 0.000000000000000000, 0.000000000000000000 ) ) ;
#231 = CARTESIAN_POINT ( 'NONE',  ( -4.678904995037512116, -4.293058122994961145, 4.913675856748716875 ) ) ;
#232 = VECTOR ( 'NONE', #265, 1000.000000000000000 ) ;
#233 = DIRECTION ( 'NONE',  ( 0.7071067811865505703, 0.000000000000000000, 0.7071067811865444641 ) ) ;
#234 = SHAPE_DEFINITION_REPRESENTATION ( #365, #73 ) ;
#235 = LINE ( 'NONE', #118, #227 ) ;
#236 = AXIS2_PLACEMENT_3D ( 'NONE', #88, #86, #112 ) ;
#237 = EDGE_CURVE ( 'NONE', #9, #189, #43, .T. ) ;
#238 = VECTOR ( 'NONE', #177, 1000.000000000000114 ) ;
#239 = ORIENTED_EDGE ( 'NONE', *, *, #89, .T. ) ;
#240 = LINE ( 'NONE', #270, #232 ) ;
#241 = VECTOR ( 'NONE', #146, 1000.000000000000114 ) ;
#242 = ORIENTED_EDGE ( 'NONE', *, *, #94, .F. ) ;
#243 = CARTESIAN_POINT ( 'NONE',  ( -4.678904995037512116, -4.293058122994961145, 4.913675856748716875 ) ) ;
#244 =( BOUNDED_CURVE ( )  B_SPLINE_CURVE ( 3, ( #10, #103, #220, #211 ),
 .UNSPECIFIED., .F., .T. ) 
 B_SPLINE_CURVE_WITH_KNOTS ( ( 4, 4 ),
 ( 6.272049537170588884, 6.294321077188590685 ),
 .UNSPECIFIED. ) 
 CURVE ( )  GEOMETRIC_REPRESENTATION_ITEM ( )  RATIONAL_B_SPLINE_CURVE ( ( 1.000000000000000000, 0.9999586653025819283, 0.9999586653025819283, 1.000000000000000000 ) ) 
 REPRESENTATION_ITEM ( '' )  );
#245 = VERTEX_POINT ( 'NONE', #119 ) ;
#246 = CARTESIAN_POINT ( 'NONE',  ( -4.408121426120161779, 5.524837858649756406, 1.137126289191133566 ) ) ;
#247 = ORIENTED_EDGE ( 'NONE', *, *, #277, .F. ) ;
#248 = VERTEX_POINT ( 'NONE', #147 ) ;
#249 =( BOUNDED_CURVE ( )  B_SPLINE_CURVE ( 3, ( #359, #207, #76, #315 ),
 .UNSPECIFIED., .F., .T. ) 
 B_SPLINE_CURVE_WITH_KNOTS ( ( 4, 4 ),
 ( 5.551902276905597233, 7.319247088367184517 ),
 .UNSPECIFIED. ) 
 CURVE ( )  GEOMETRIC_REPRESENTATION_ITEM ( )  RATIONAL_B_SPLINE_CURVE ( ( 1.000000000000000000, 0.7562109254666704583, 0.7562109254666704583, 1.000000000000000000 ) ) 
 REPRESENTATION_ITEM ( '' )  );
#250 = DIRECTION ( 'NONE',  ( 0.000000000000000000, 0.000000000000000000, -1.000000000000000000 ) ) ;
#251 = LINE ( 'NONE', #327, #44 ) ;
#252 = PLANE ( 'NONE',  #344 ) ;
#253 = ADVANCED_FACE ( 'NONE', ( #278 ), #219, .T. ) ;
#254 = EDGE_CURVE ( 'NONE', #15, #130, #316, .T. ) ;
#255 = CARTESIAN_POINT ( 'NONE',  ( -4.742259540638738002, -4.223232986133282019, 4.913304656743202159 ) ) ;
#256 = DIRECTION ( 'NONE',  ( 0.000000000000000000, 0.000000000000000000, 1.000000000000000000 ) ) ;
#257 =( LENGTH_UNIT ( ) NAMED_UNIT ( * ) SI_UNIT ( .MILLI., .METRE. ) );
#258 = DIRECTION ( 'NONE',  ( -1.000000000000000000, 0.000000000000000000, -0.000000000000000000 ) ) ;
#259 = CARTESIAN_POINT ( 'NONE',  ( 0.000000000000000000, 0.000000000000000000, -0.6699999999999995959 ) ) ;
#260 =( NAMED_UNIT ( * ) PLANE_ANGLE_UNIT ( ) SI_UNIT ( $, .RADIAN. ) );
#261 = ORIENTED_EDGE ( 'NONE', *, *, #94, .T. ) ;
#262 = DIRECTION ( 'NONE',  ( -1.000000000000000000, 0.000000000000000000, 0.000000000000000000 ) ) ;
#263 = AXIS2_PLACEMENT_3D ( 'NONE', #308, #256, #286 ) ;
#264 = EDGE_LOOP ( 'NONE', ( #358, #80, #274, #133, #45, #294, #346, #82 ) ) ;
#265 = DIRECTION ( 'NONE',  ( -0.6678251671697869041, 0.7443181753085479357, 0.000000000000000000 ) ) ;
#266 = ORIENTED_EDGE ( 'NONE', *, *, #223, .T. ) ;
#267 = MANIFOLD_SOLID_BREP ( 'µ¹½Ç2', #13 ) ;
#268 = EDGE_CURVE ( 'NONE', #130, #248, #336, .T. ) ;
#269 = ORIENTED_EDGE ( 'NONE', *, *, #12, .T. ) ;
#270 = CARTESIAN_POINT ( 'NONE',  ( -0.07760903269836591511, 0.02536739462952482260, 9.374658006696643398 ) ) ;
#271 = ORIENTED_EDGE ( 'NONE', *, *, #151, .T. ) ;
#272 = ORIENTED_EDGE ( 'NONE', *, *, #349, .F. ) ;
#273 = CARTESIAN_POINT ( 'NONE',  ( 0.000000000000000000, 0.000000000000000000, -0.5700000000000019496 ) ) ;
#274 = ORIENTED_EDGE ( 'NONE', *, *, #254, .T. ) ;
#275 = ADVANCED_FACE ( 'NONE', ( #64 ), #6, .F. ) ;
#276 = CARTESIAN_POINT ( 'NONE',  ( 4.235462525477922568, -1.310016928385308477, 6.269017013437426122 ) ) ;
#277 = EDGE_CURVE ( 'NONE', #100, #15, #123, .T. ) ;
#278 = FACE_OUTER_BOUND ( 'NONE', #17, .T. ) ;
#279 = ORIENTED_EDGE ( 'NONE', *, *, #268, .F. ) ;
#280 = DIRECTION ( 'NONE',  ( 1.000000000000000000, 0.000000000000000000, 0.000000000000000000 ) ) ;
#281 = AXIS2_PLACEMENT_3D ( 'NONE', #42, #128, #329 ) ;
#282 = CARTESIAN_POINT ( 'NONE',  ( 6.028556822411205829, -1.995300740465622225, 4.913304656743207488 ) ) ;
#283 =( BOUNDED_CURVE ( )  B_SPLINE_CURVE ( 3, ( #183, #246, #291, #81 ),
 .UNSPECIFIED., .F., .T. ) 
 B_SPLINE_CURVE_WITH_KNOTS ( ( 4, 4 ),
 ( 5.247123525991986170, 6.599099828102190202 ),
 .UNSPECIFIED. ) 
 CURVE ( )  GEOMETRIC_REPRESENTATION_ITEM ( )  RATIONAL_B_SPLINE_CURVE ( ( 1.000000000000000000, 0.8533927180882582286, 0.8533927180882582286, 1.000000000000000000 ) ) 
 REPRESENTATION_ITEM ( '' )  );
#284 = SURFACE_SIDE_STYLE ('',( #63 ) ) ;
#285 = CARTESIAN_POINT ( 'NONE',  ( 0.000000000000000000, 0.000000000000000000, 0.000000000000000000 ) ) ;
#286 = DIRECTION ( 'NONE',  ( 1.000000000000000000, 0.000000000000000000, 0.000000000000000000 ) ) ;
#287 = DIRECTION ( 'NONE',  ( -0.000000000000000000, 0.000000000000000000, 1.000000000000000000 ) ) ;
#288 = FACE_OUTER_BOUND ( 'NONE', #190, .T. ) ;
#289 = APPLICATION_PROTOCOL_DEFINITION ( 'draft international standard', 'automotive_design', 1998, #66 ) ;
#290 = ORIENTED_EDGE ( 'NONE', *, *, #212, .T. ) ;
#291 = CARTESIAN_POINT ( 'NONE',  ( -6.349999999999998757, 3.103686174823298227, -0.4094046865415405523 ) ) ;
#292 = FACE_OUTER_BOUND ( 'NONE', #217, .T. ) ;
#293 = CIRCLE ( 'NONE', #141, 6.250000000000000000 ) ;
#294 = ORIENTED_EDGE ( 'NONE', *, *, #350, .F. ) ;
#295 = AXIS2_PLACEMENT_3D ( 'NONE', #273, #326, #262 ) ;
#296 = EDGE_LOOP ( 'NONE', ( #164, #184, #210, #165 ) ) ;
#297 = DIRECTION ( 'NONE',  ( 0.000000000000000000, 0.000000000000000000, -1.000000000000000000 ) ) ;
#298 = DIRECTION ( 'NONE',  ( -0.000000000000000000, -0.000000000000000000, -1.000000000000000000 ) ) ;
#299 = VERTEX_POINT ( 'NONE', #4 ) ;
#300 = DIRECTION ( 'NONE',  ( -0.000000000000000000, -0.000000000000000000, -1.000000000000000000 ) ) ;
#301 = EDGE_LOOP ( 'NONE', ( #18, #239, #159 ) ) ;
#302 =( GEOMETRIC_REPRESENTATION_CONTEXT ( 3 ) GLOBAL_UNCERTAINTY_ASSIGNED_CONTEXT ( ( #364 ) ) GLOBAL_UNIT_ASSIGNED_CONTEXT ( ( #34, #314, #97 ) ) REPRESENTATION_CONTEXT ( 'NONE', 'WORKASPACE' ) );
#303 = CARTESIAN_POINT ( 'NONE',  ( -6.349999999999999645, 0.000000000000000000, 0.9542810377841225433 ) ) ;
#304 = ORIENTED_EDGE ( 'NONE', *, *, #25, .T. ) ;
#305 = CARTESIAN_POINT ( 'NONE',  ( -0.07760903269836591511, 0.02536739462952482260, 9.374658006696643398 ) ) ;
#306 = UNCERTAINTY_MEASURE_WITH_UNIT (LENGTH_MEASURE( 1.000000000000000082E-05 ), #35, 'distance_accuracy_value', 'NONE');
#307 = FILL_AREA_STYLE ('',( #201 ) ) ;
#308 = CARTESIAN_POINT ( 'NONE',  ( 0.000000000000000000, 0.000000000000000000, -0.6699999999999995959 ) ) ;
#309 = DIRECTION ( 'NONE',  ( 0.000000000000000000, 0.000000000000000000, -1.000000000000000000 ) ) ;
#310 = FACE_OUTER_BOUND ( 'NONE', #22, .T. ) ;
#311 = DIRECTION ( 'NONE',  ( 0.4297322988771206664, 0.3855690400370828663, -0.8164965809277265896 ) ) ;
#312 = ADVANCED_FACE ( 'NONE', ( #178 ), #96, .T. ) ;
#313 =( BOUNDED_CURVE ( )  B_SPLINE_CURVE ( 3, ( #200, #174, #31, #171 ),
 .UNSPECIFIED., .F., .T. ) 
 B_SPLINE_CURVE_WITH_KNOTS ( ( 4, 4 ),
 ( 5.247123525991988835, 5.551902276905597233 ),
 .UNSPECIFIED. ) 
 CURVE ( )  GEOMETRIC_REPRESENTATION_ITEM ( )  RATIONAL_B_SPLINE_CURVE ( ( 1.000000000000000000, 0.9922741279781082113, 0.9922741279781082113, 1.000000000000000000 ) ) 
 REPRESENTATION_ITEM ( '' )  );
#314 =( NAMED_UNIT ( * ) PLANE_ANGLE_UNIT ( ) SI_UNIT ( $, .RADIAN. ) );
#315 = CARTESIAN_POINT ( 'NONE',  ( -1.240062539693429722, 6.227739951029515275, 4.913675856748689341 ) ) ;
#316 =( BOUNDED_CURVE ( )  B_SPLINE_CURVE ( 3, ( #144, #32, #282, #95 ),
 .UNSPECIFIED., .F., .F. ) 
 B_SPLINE_CURVE_WITH_KNOTS ( ( 4, 4 ),
 ( 6.272049537170586220, 6.294321077188580027 ),
 .UNSPECIFIED. ) 
 CURVE ( )  GEOMETRIC_REPRESENTATION_ITEM ( )  RATIONAL_B_SPLINE_CURVE ( ( 1.000000000000000000, 0.9999586653025819283, 0.9999586653025819283, 1.000000000000000000 ) ) 
 REPRESENTATION_ITEM ( '' )  );
#317 = PRESENTATION_LAYER_ASSIGNMENT (  '', '', ( #55 ) ) ;
#318 = ORIENTED_EDGE ( 'NONE', *, *, #90, .F. ) ;
#319 = CARTESIAN_POINT ( 'NONE',  ( 6.250000000000000000, 0.000000000000000000, -0.6700000000000000400 ) ) ;
#320 = ADVANCED_FACE ( 'NONE', ( #116 ), #11, .T. ) ;
#321 = PRODUCT ( 'GP16-012-2', 'GP16-012-2', '', ( #70 ) ) ;
#322 = ORIENTED_EDGE ( 'NONE', *, *, #59, .T. ) ;
#323 = VERTEX_POINT ( 'NONE', #69 ) ;
#324 = CARTESIAN_POINT ( 'NONE',  ( -1.020309708082631550, -8.280476711917238219, -1.671065411290754588 ) ) ;
#325 = LINE ( 'NONE', #57, #188 ) ;
#326 = DIRECTION ( 'NONE',  ( 0.000000000000000000, 0.000000000000000000, 1.000000000000000000 ) ) ;
#327 = CARTESIAN_POINT ( 'NONE',  ( -0.8448409661450662078, 4.352186909969163686, 6.269017013437423458 ) ) ;
#328 = ORIENTED_EDGE ( 'NONE', *, *, #187, .T. ) ;
#329 = DIRECTION ( 'NONE',  ( 0.5968741507397007373, 0.000000000000000000, 0.8023348728422323717 ) ) ;
#330 = CARTESIAN_POINT ( 'NONE',  ( -0.07760903269836591511, 0.02536739462952482260, 9.374658006696643398 ) ) ;
#331 = MECHANICAL_DESIGN_GEOMETRIC_PRESENTATION_REPRESENTATION (  '', ( #55 ), #302 ) ;
#332 = VECTOR ( 'NONE', #300, 1000.000000000000000 ) ;
#333 = DIRECTION ( 'NONE',  ( -0.5487787330234530359, 0.1793745676357337837, -0.8164965809277264785 ) ) ;
#334 = CARTESIAN_POINT ( 'NONE',  ( 0.000000000000000000, 0.000000000000000000, 5.000000000000000000 ) ) ;
#335 = ADVANCED_FACE ( 'NONE', ( #288 ), #205, .T. ) ;
#336 = LINE ( 'NONE', #93, #238 ) ;
#337 = CARTESIAN_POINT ( 'NONE',  ( -1.240062539693429722, 6.227739951029515275, 4.913675856748689341 ) ) ;
#338 = APPLICATION_PROTOCOL_DEFINITION ( 'draft international standard', 'automotive_design', 1998, #49 ) ;
#339 = SURFACE_STYLE_FILL_AREA ( #363 ) ;
#340 = AXIS2_PLACEMENT_3D ( 'NONE', #163, #297, #74 ) ;
#341 = CARTESIAN_POINT ( 'NONE',  ( -4.773349735908087865, -4.187795637170729002, 4.913675856748678683 ) ) ;
#342 =( BOUNDED_CURVE ( )  B_SPLINE_CURVE ( 3, ( #352, #324, #85, #347 ),
 .UNSPECIFIED., .F., .F. ) 
 B_SPLINE_CURVE_WITH_KNOTS ( ( 4, 4 ),
 ( 5.247123525991984394, 7.319247088367180964 ),
 .UNSPECIFIED. ) 
 CURVE ( )  GEOMETRIC_REPRESENTATION_ITEM ( )  RATIONAL_B_SPLINE_CURVE ( ( 1.000000000000000000, 0.6730751062543968155, 0.6730751062543968155, 1.000000000000000000 ) ) 
 REPRESENTATION_ITEM ( '' )  );
#343 = CARTESIAN_POINT ( 'NONE',  ( -0.9832233233696189290, 4.323026608033527118, 6.269017013437423458 ) ) ;
#344 = AXIS2_PLACEMENT_3D ( 'NONE', #276, #333, #226 ) ;
#345 = VECTOR ( 'NONE', #62, 999.9999999999998863 ) ;
#346 = ORIENTED_EDGE ( 'NONE', *, *, #105, .T. ) ;
#347 = CARTESIAN_POINT ( 'NONE',  ( 6.013412275601540458, -2.039944313858764513, 4.913675856748660919 ) ) ;
#348 = EDGE_CURVE ( 'NONE', #135, #245, #181, .T. ) ;
#349 = EDGE_CURVE ( 'NONE', #194, #169, #235, .T. ) ;
#350 = EDGE_CURVE ( 'NONE', #83, #189, #354, .T. ) ;
#351 = ORIENTED_EDGE ( 'NONE', *, *, #254, .F. ) ;
#352 = CARTESIAN_POINT ( 'NONE',  ( -4.678904995037512116, -4.293058122994961145, 4.913675856748716875 ) ) ;
#353 = DIRECTION ( 'NONE',  ( 0.1683570817218979776, -0.7989509119468815035, 0.5773502691896249539 ) ) ;
#354 =( BOUNDED_CURVE ( )  B_SPLINE_CURVE ( 3, ( #176, #37, #203, #341 ),
 .UNSPECIFIED., .F., .F. ) 
 B_SPLINE_CURVE_WITH_KNOTS ( ( 4, 4 ),
 ( 0.3159145209226037476, 1.036061781187596509 ),
 .UNSPECIFIED. ) 
 CURVE ( )  GEOMETRIC_REPRESENTATION_ITEM ( )  RATIONAL_B_SPLINE_CURVE ( ( 1.000000000000000000, 0.9572472554283688595, 0.9572472554283688595, 1.000000000000000000 ) ) 
 REPRESENTATION_ITEM ( '' )  );
#355 = ORIENTED_EDGE ( 'NONE', *, *, #89, .F. ) ;
#356 = DIRECTION ( 'NONE',  ( -0.000000000000000000, -0.000000000000000000, -1.000000000000000000 ) ) ;
#357 = LINE ( 'NONE', #24, #362 ) ;
#358 = ORIENTED_EDGE ( 'NONE', *, *, #39, .F. ) ;
#359 = CARTESIAN_POINT ( 'NONE',  ( 6.349999999999999645, 7.776507174585692163E-16, 2.805960210696957891 ) ) ;
#360 = DIRECTION ( 'NONE',  ( 0.6887517733186879765, 0.000000000000000000, -0.7249972377536088031 ) ) ;
#361 = VERTEX_POINT ( 'NONE', #337 ) ;
#362 = VECTOR ( 'NONE', #137, 1000.000000000000000 ) ;
#363 = FILL_AREA_STYLE ('',( #204 ) ) ;
#364 = UNCERTAINTY_MEASURE_WITH_UNIT (LENGTH_MEASURE( 1.000000000000000082E-05 ), #34, 'distance_accuracy_value', 'NONE');
#365 = PRODUCT_DEFINITION_SHAPE ( 'NONE', 'NONE',  #154 ) ;
#366 = SURFACE_STYLE_USAGE ( .BOTH. , #115 ) ;
#367 = VECTOR ( 'NONE', #180, 1000.000000000000000 ) ;
ENDSEC;
END-ISO-10303-21;
