ISO-10303-21;
HEADER;
FILE_DESCRIPTION (( 'STEP AP214' ),
    '1' );
FILE_NAME ('GP26-038-1.STEP',
    '2024-08-15T09:54:07',
    ( 'Windows User' ),
    ( 'P R C' ),
    'SwSTEP 2.0',
    'SolidWorks 2022',
    '' );
FILE_SCHEMA (( 'AUTOMOTIVE_DESIGN' ));
ENDSEC;

DATA;
#1 = DIRECTION ( 'NONE',  ( -0.1683570817218952020, 0.7989509119468812814, -0.5773502691896262862 ) ) ;
#2 = EDGE_LOOP ( 'NONE', ( #32, #178, #145, #200 ) ) ;
#3 = ADVANCED_FACE ( 'NONE', ( #288 ), #89, .T. ) ;
#4 = PLANE ( 'NONE',  #15 ) ;
#5 = CARTESIAN_POINT ( 'NONE',  ( -14.13194118930553955, -12.77461303609661769, 14.91349025610682766 ) ) ;
#6 = DIRECTION ( 'NONE',  ( 0.000000000000000000, -1.000000000000000000, 6.555536819116137014E-14 ) ) ;
#7 = ORIENTED_EDGE ( 'NONE', *, *, #139, .T. ) ;
#8 = AXIS2_PLACEMENT_3D ( 'NONE', #249, #287, #148 ) ;
#9 = CARTESIAN_POINT ( 'NONE',  ( -18.95000000000000995, 2.326828918379971759E-15, -0.02999999999999999889 ) ) ;
#10 = VERTEX_POINT ( 'NONE', #98 ) ;
#11 = CARTESIAN_POINT ( 'NONE',  ( -3.997168818122697864, 18.62592659277459006, 14.91349025610679746 ) ) ;
#12 = CARTESIAN_POINT ( 'NONE',  ( -17.36877870203478480, -9.140764602692284413, 9.139021733441680340 ) ) ;
#13 = CARTESIAN_POINT ( 'NONE',  ( -3.858786460898127491, 18.65508689471023018, 14.91349025610667134 ) ) ;
#14 = CARTESIAN_POINT ( 'NONE',  ( 0.000000000000000000, 0.000000000000000000, 0.06999999999998500477 ) ) ;
#15 = AXIS2_PLACEMENT_3D ( 'NONE', #345, #365, #65 ) ;
#16 = CARTESIAN_POINT ( 'NONE',  ( 19.05000000000000071, 13.05572763270167691, -3.912567499380198655 ) ) ;
#17 = LINE ( 'NONE', #164, #367 ) ;
#18 = EDGE_LOOP ( 'NONE', ( #188, #50, #138, #147 ) ) ;
#19 = CARTESIAN_POINT ( 'NONE',  ( 2.767349996530287015, -13.13266291379610173, 9.490128060534559040 ) ) ;
#20 = ORIENTED_EDGE ( 'NONE', *, *, #46, .T. ) ;
#21 = EDGE_CURVE ( 'NONE', #120, #171, #290, .T. ) ;
#22 = CARTESIAN_POINT ( 'NONE',  ( 18.74052807064706627, -3.956958516351812172, 12.48077769497986722 ) ) ;
#23 = AXIS2_PLACEMENT_3D ( 'NONE', #14, #44, #38 ) ;
#24 = PRODUCT_DEFINITION_CONTEXT ( 'detailed design', #66, 'design' ) ;
#25 = PLANE ( 'NONE',  #87 ) ;
#26 = CARTESIAN_POINT ( 'NONE',  ( 18.95000000000000995, 0.000000000000000000, -0.02999999999999999889 ) ) ;
#27 = EDGE_LOOP ( 'NONE', ( #115, #20, #195, #248, #312, #150 ) ) ;
#28 = AXIS2_PLACEMENT_3D ( 'NONE', #296, #353, #47 ) ;
#29 = EDGE_CURVE ( 'NONE', #305, #338, #319, .T. ) ;
#30 = VERTEX_POINT ( 'NONE', #142 ) ;
#31 = APPLICATION_PROTOCOL_DEFINITION ( 'draft international standard', 'automotive_design', 1998, #176 ) ;
#32 = ORIENTED_EDGE ( 'NONE', *, *, #100, .F. ) ;
#33 =( BOUNDED_CURVE ( )  B_SPLINE_CURVE ( 3, ( #210, #40, #70, #233 ),
 .UNSPECIFIED., .F., .F. ) 
 B_SPLINE_CURVE_WITH_KNOTS ( ( 4, 4 ),
 ( 6.279473452035605696, 6.286897162323549892 ),
 .UNSPECIFIED. ) 
 CURVE ( )  GEOMETRIC_REPRESENTATION_ITEM ( )  RATIONAL_B_SPLINE_CURVE ( ( 1.000000000000000000, 0.9999954073824031120, 0.9999954073824031120, 1.000000000000000000 ) ) 
 REPRESENTATION_ITEM ( '' )  );
#34 = EDGE_CURVE ( 'NONE', #171, #289, #72, .T. ) ;
#35 =( NAMED_UNIT ( * ) SI_UNIT ( $, .STERADIAN. ) SOLID_ANGLE_UNIT ( ) );
#36 = ORIENTED_EDGE ( 'NONE', *, *, #88, .F. ) ;
#37 =( GEOMETRIC_REPRESENTATION_CONTEXT ( 3 ) GLOBAL_UNCERTAINTY_ASSIGNED_CONTEXT ( ( #349 ) ) GLOBAL_UNIT_ASSIGNED_CONTEXT ( ( #295, #77, #126 ) ) REPRESENTATION_CONTEXT ( 'NONE', 'WORKASPACE' ) );
#38 = DIRECTION ( 'NONE',  ( -1.000000000000000000, 0.000000000000000000, 0.000000000000000000 ) ) ;
#39 = CARTESIAN_POINT ( 'NONE',  ( -3.904949887071382797, 18.64553803520014341, 14.91336652731779111 ) ) ;
#40 = CARTESIAN_POINT ( 'NONE',  ( -14.16355293730286746, -12.73964247672804539, 14.91336652731779111 ) ) ;
#41 = AXIS2_PLACEMENT_3D ( 'NONE', #256, #95, #252 ) ;
#42 = PRODUCT_CONTEXT ( 'NONE', #176, 'mechanical' ) ;
#43 = MECHANICAL_DESIGN_GEOMETRIC_PRESENTATION_REPRESENTATION (  '', ( #265 ), #241 ) ;
#44 = DIRECTION ( 'NONE',  ( 0.000000000000000000, 0.000000000000000000, 1.000000000000000000 ) ) ;
#45 = DIRECTION ( 'NONE',  ( 0.1190464341463059045, -0.5649436076728215905, -0.8164965809277258124 ) ) ;
#46 = EDGE_CURVE ( 'NONE', #91, #338, #313, .T. ) ;
#47 = DIRECTION ( 'NONE',  ( -1.000000000000000000, 0.000000000000000000, 0.000000000000000000 ) ) ;
#48 = CARTESIAN_POINT ( 'NONE',  ( 18.12911000742827028, -5.851313556678047867, 14.91349025610672285 ) ) ;
#49 = LINE ( 'NONE', #107, #151 ) ;
#50 = ORIENTED_EDGE ( 'NONE', *, *, #292, .F. ) ;
#51 = LINE ( 'NONE', #165, #179 ) ;
#52 = ORIENTED_EDGE ( 'NONE', *, *, #279, .T. ) ;
#53 =( BOUNDED_CURVE ( )  B_SPLINE_CURVE ( 3, ( #99, #322, #12, #128 ),
 .UNSPECIFIED., .F., .F. ) 
 B_SPLINE_CURVE_WITH_KNOTS ( ( 4, 4 ),
 ( 0.3159145209226036921, 1.043485696052623979 ),
 .UNSPECIFIED. ) 
 CURVE ( )  GEOMETRIC_REPRESENTATION_ITEM ( )  RATIONAL_B_SPLINE_CURVE ( ( 1.000000000000000000, 0.9563710372655722658, 0.9563710372655722658, 1.000000000000000000 ) ) 
 REPRESENTATION_ITEM ( '' )  );
#54 = DIRECTION ( 'NONE',  ( 0.1683570817218953408, -0.7989509119468821696, 0.5773502691896249539 ) ) ;
#55 = COLOUR_RGB ( '',1.000000000000000000, 1.000000000000000000, 1.000000000000000000 ) ;
#56 =( NAMED_UNIT ( * ) PLANE_ANGLE_UNIT ( ) SI_UNIT ( $, .RADIAN. ) );
#57 = PRESENTATION_STYLE_ASSIGNMENT (( #116 ) ) ;
#58 = EDGE_CURVE ( 'NONE', #300, #305, #170, .T. ) ;
#59 = CARTESIAN_POINT ( 'NONE',  ( 0.000000000000000000, 0.000000000000000000, 15.00000000000000000 ) ) ;
#60 =( NAMED_UNIT ( * ) PLANE_ANGLE_UNIT ( ) SI_UNIT ( $, .RADIAN. ) );
#61 = ORIENTED_EDGE ( 'NONE', *, *, #251, .T. ) ;
#62 = AXIS2_PLACEMENT_3D ( 'NONE', #59, #118, #346 ) ;
#63 = DIRECTION ( 'NONE',  ( -0.7760903269836909590, 0.2536739462952663504, 0.5773502691896263972 ) ) ;
#64 = DIRECTION ( 'NONE',  ( 0.000000000000000000, 0.000000000000000000, -1.000000000000000000 ) ) ;
#65 = DIRECTION ( 'NONE',  ( 0.6887517733186858671, 0.000000000000000000, -0.7249972377536108015 ) ) ;
#66 = APPLICATION_CONTEXT ( 'automotive_design' ) ;
#67 = VERTEX_POINT ( 'NONE', #159 ) ;
#68 = CARTESIAN_POINT ( 'NONE',  ( 18.95000000000000995, 0.000000000000000000, -0.03000000000000051237 ) ) ;
#69 =( BOUNDED_CURVE ( )  B_SPLINE_CURVE ( 3, ( #180, #103, #327, #291 ),
 .UNSPECIFIED., .F., .F. ) 
 B_SPLINE_CURVE_WITH_KNOTS ( ( 4, 4 ),
 ( 6.279473452035644776, 6.286897162323581867 ),
 .UNSPECIFIED. ) 
 CURVE ( )  GEOMETRIC_REPRESENTATION_ITEM ( )  RATIONAL_B_SPLINE_CURVE ( ( 1.000000000000000000, 0.9999954073824031120, 0.9999954073824031120, 1.000000000000000000 ) ) 
 REPRESENTATION_ITEM ( '' )  );
#70 = CARTESIAN_POINT ( 'NONE',  ( -14.19503466217658350, -12.70455482030910765, 14.91336652731779111 ) ) ;
#71 = CARTESIAN_POINT ( 'NONE',  ( -18.95000000000000995, 2.320705684384235081E-15, -0.03000000000000051237 ) ) ;
#72 =( BOUNDED_CURVE ( )  B_SPLINE_CURVE ( 3, ( #5, #223, #250, #281 ),
 .UNSPECIFIED., .F., .F. ) 
 B_SPLINE_CURVE_WITH_KNOTS ( ( 4, 4 ),
 ( 5.239699611126954260, 7.326671003232207546 ),
 .UNSPECIFIED. ) 
 CURVE ( )  GEOMETRIC_REPRESENTATION_ITEM ( )  RATIONAL_B_SPLINE_CURVE ( ( 1.000000000000000000, 0.6688074060033476487, 0.6688074060033476487, 1.000000000000000000 ) ) 
 REPRESENTATION_ITEM ( '' )  );
#73 = DIRECTION ( 'NONE',  ( 1.000000000000000000, 0.000000000000000000, 0.000000000000000000 ) ) ;
#74 = DIRECTION ( 'NONE',  ( -0.7760903269836915142, 0.2536739462952667945, 0.5773502691896252870 ) ) ;
#75 = AXIS2_PLACEMENT_3D ( 'NONE', #213, #216, #361 ) ;
#76 = CARTESIAN_POINT ( 'NONE',  ( 0.000000000000000000, 0.000000000000000000, 0.000000000000000000 ) ) ;
#77 =( NAMED_UNIT ( * ) PLANE_ANGLE_UNIT ( ) SI_UNIT ( $, .RADIAN. ) );
#78 = CARTESIAN_POINT ( 'NONE',  ( 19.05000000000000071, 2.332952152375708043E-15, 8.417880632090829707 ) ) ;
#79 = ORIENTED_EDGE ( 'NONE', *, *, #157, .T. ) ;
#80 = CIRCLE ( 'NONE', #259, 18.95000000000000995 ) ;
#81 = LINE ( 'NONE', #306, #283 ) ;
#82 = DIRECTION ( 'NONE',  ( 0.000000000000000000, -0.5857106597838052098, -0.8105202175242882667 ) ) ;
#83 = ORIENTED_EDGE ( 'NONE', *, *, #292, .T. ) ;
#84 = DIRECTION ( 'NONE',  ( 0.000000000000000000, 0.000000000000000000, -1.000000000000000000 ) ) ;
#85 = EDGE_LOOP ( 'NONE', ( #246, #61, #52, #357 ) ) ;
#86 = CARTESIAN_POINT ( 'NONE',  ( -2.689740963831925402, 13.10729551916658231, 18.92252109415019135 ) ) ;
#87 = AXIS2_PLACEMENT_3D ( 'NONE', #247, #280, #6 ) ;
#88 = EDGE_CURVE ( 'NONE', #171, #10, #33, .T. ) ;
#89 = CYLINDRICAL_SURFACE ( 'NONE', #62, 19.05000000000000071 ) ;
#90 = SURFACE_STYLE_FILL_AREA ( #199 ) ;
#91 = VERTEX_POINT ( 'NONE', #106 ) ;
#92 = DIRECTION ( 'NONE',  ( -0.000000000000000000, -0.000000000000000000, -1.000000000000000000 ) ) ;
#93 = ADVANCED_FACE ( 'NONE', ( #124 ), #232, .F. ) ;
#94 = AXIS2_PLACEMENT_3D ( 'NONE', #266, #45, #323 ) ;
#95 = DIRECTION ( 'NONE',  ( -0.5487787330234590311, 0.1793745676357187957, -0.8164965809277257014 ) ) ;
#96 = ORIENTED_EDGE ( 'NONE', *, *, #21, .F. ) ;
#97 =( BOUNDED_CURVE ( )  B_SPLINE_CURVE ( 3, ( #78, #16, #130, #245 ),
 .UNSPECIFIED., .F., .F. ) 
 B_SPLINE_CURVE_WITH_KNOTS ( ( 4, 4 ),
 ( 5.551902276905597233, 7.326671003232211987 ),
 .UNSPECIFIED. ) 
 CURVE ( )  GEOMETRIC_REPRESENTATION_ITEM ( )  RATIONAL_B_SPLINE_CURVE ( ( 1.000000000000000000, 0.7542949391107045543, 0.7542949391107045543, 1.000000000000000000 ) ) 
 REPRESENTATION_ITEM ( '' )  );
#98 = CARTESIAN_POINT ( 'NONE',  ( -14.22638593017612152, -12.66935055027237667, 14.91349025610663226 ) ) ;
#99 = CARTESIAN_POINT ( 'NONE',  ( -19.05000000000000071, 0.000000000000000000, 2.862843113352324220 ) ) ;
#100 = EDGE_CURVE ( 'NONE', #300, #30, #268, .T. ) ;
#101 = DIRECTION ( 'NONE',  ( -0.7071067811865721087, 8.659560562355233611E-17, 0.7071067811865230368 ) ) ;
#102 = DIRECTION ( 'NONE',  ( 0.000000000000000000, 0.000000000000000000, 1.000000000000000000 ) ) ;
#103 = CARTESIAN_POINT ( 'NONE',  ( 18.11463048862920999, -5.896175413186007574, 14.91336652731779111 ) ) ;
#104 = UNCERTAINTY_MEASURE_WITH_UNIT (LENGTH_MEASURE( 1.000000000000000082E-05 ), #197, 'distance_accuracy_value', 'NONE');
#105 = VECTOR ( 'NONE', #92, 1000.000000000000000 ) ;
#106 = CARTESIAN_POINT ( 'NONE',  ( 19.05000000000000071, 2.332952152375708043E-15, 8.417880632090829707 ) ) ;
#107 = CARTESIAN_POINT ( 'NONE',  ( -0.07760903269836255669, 0.02536739462952376095, 28.35491412776584141 ) ) ;
#108 = DIRECTION ( 'NONE',  ( -0.9785110319005707602, -0.2061944724013720365, 4.907193138578360825E-14 ) ) ;
#109 = EDGE_LOOP ( 'NONE', ( #169, #190, #260, #135 ) ) ;
#110 = CONICAL_SURFACE ( 'NONE', #336, 18.95000000000000995, 0.7853981633974831400 ) ;
#111 = FACE_OUTER_BOUND ( 'NONE', #109, .T. ) ;
#112 = DIRECTION ( 'NONE',  ( 0.7760903269836909590, -0.2536739462952663504, -0.5773502691896262862 ) ) ;
#113 = ORIENTED_EDGE ( 'NONE', *, *, #58, .T. ) ;
#114 = EDGE_CURVE ( 'NONE', #30, #338, #294, .T. ) ;
#115 = ORIENTED_EDGE ( 'NONE', *, *, #240, .F. ) ;
#116 = SURFACE_STYLE_USAGE ( .BOTH. , #311 ) ;
#117 = ORIENTED_EDGE ( 'NONE', *, *, #46, .F. ) ;
#118 = DIRECTION ( 'NONE',  ( -0.000000000000000000, -0.000000000000000000, -1.000000000000000000 ) ) ;
#119 = CARTESIAN_POINT ( 'NONE',  ( 18.08517239107431251, -5.985736344437795786, 14.91349025610657542 ) ) ;
#120 = VERTEX_POINT ( 'NONE', #155 ) ;
#121 = MECHANICAL_DESIGN_GEOMETRIC_PRESENTATION_REPRESENTATION (  '', ( #196 ), #37 ) ;
#122 = LINE ( 'NONE', #340, #359 ) ;
#123 = ORIENTED_EDGE ( 'NONE', *, *, #347, .T. ) ;
#124 = FACE_OUTER_BOUND ( 'NONE', #18, .T. ) ;
#125 = EDGE_CURVE ( 'NONE', #275, #30, #208, .T. ) ;
#126 =( NAMED_UNIT ( * ) SI_UNIT ( $, .STERADIAN. ) SOLID_ANGLE_UNIT ( ) );
#127 = CARTESIAN_POINT ( 'NONE',  ( 0.000000000000000000, 0.000000000000000000, -0.02999999999999999889 ) ) ;
#128 = CARTESIAN_POINT ( 'NONE',  ( -14.22638593017612152, -12.66935055027237667, 14.91349025610663226 ) ) ;
#129 = CARTESIAN_POINT ( 'NONE',  ( -19.05000000000000071, 0.000000000000000000, 15.00000000000000000 ) ) ;
#130 = CARTESIAN_POINT ( 'NONE',  ( 8.926291411108120855, 21.29966773598282259, -1.042068049181042788 ) ) ;
#131 = PLANE ( 'NONE',  #234 ) ;
#132 = ORIENTED_EDGE ( 'NONE', *, *, #114, .T. ) ;
#133 = ADVANCED_FACE ( 'NONE', ( #263 ), #239, .T. ) ;
#134 = CARTESIAN_POINT ( 'NONE',  ( -19.05000000000000071, 0.000000000000000000, 2.862843113352324220 ) ) ;
#135 = ORIENTED_EDGE ( 'NONE', *, *, #29, .F. ) ;
#136 = CLOSED_SHELL ( 'NONE', ( #186, #3, #235, #133, #267, #350, #229, #320, #93, #325, #286, #262 ) ) ;
#137 = CARTESIAN_POINT ( 'NONE',  ( 19.05000000000000071, 2.332952152375708043E-15, 8.417880632090829707 ) ) ;
#138 = ORIENTED_EDGE ( 'NONE', *, *, #209, .F. ) ;
#139 = EDGE_CURVE ( 'NONE', #275, #10, #53, .T. ) ;
#140 = ORIENTED_EDGE ( 'NONE', *, *, #209, .T. ) ;
#141 = FACE_OUTER_BOUND ( 'NONE', #85, .T. ) ;
#142 = CARTESIAN_POINT ( 'NONE',  ( -19.05000000000000071, 0.000000000000000000, 0.06999999999998500477 ) ) ;
#143 = PRODUCT_DEFINITION_SHAPE ( 'NONE', 'NONE',  #276 ) ;
#144 =( LENGTH_UNIT ( ) NAMED_UNIT ( * ) SI_UNIT ( .MILLI., .METRE. ) );
#145 = ORIENTED_EDGE ( 'NONE', *, *, #29, .T. ) ;
#146 =( NAMED_UNIT ( * ) SI_UNIT ( $, .STERADIAN. ) SOLID_ANGLE_UNIT ( ) );
#147 = ORIENTED_EDGE ( 'NONE', *, *, #212, .F. ) ;
#148 = DIRECTION ( 'NONE',  ( 1.000000000000000000, 0.000000000000000000, 0.000000000000000000 ) ) ;
#149 = ORIENTED_EDGE ( 'NONE', *, *, #201, .F. ) ;
#150 = ORIENTED_EDGE ( 'NONE', *, *, #177, .T. ) ;
#151 = VECTOR ( 'NONE', #272, 1000.000000000000114 ) ;
#152 = CARTESIAN_POINT ( 'NONE',  ( -12.75689470095033506, 4.169736058740042495, 9.490128060534569698 ) ) ;
#153 = EDGE_CURVE ( 'NONE', #244, #289, #69, .T. ) ;
#154 = FILL_AREA_STYLE_COLOUR ( '', #55 ) ;
#155 = CARTESIAN_POINT ( 'NONE',  ( 0.01683570817218741494, -0.07989509119468367337, 28.35491412776584497 ) ) ;
#156 = VECTOR ( 'NONE', #1, 1000.000000000000227 ) ;
#157 = EDGE_CURVE ( 'NONE', #305, #300, #80, .T. ) ;
#158 = SURFACE_SIDE_STYLE ('',( #293 ) ) ;
#159 = CARTESIAN_POINT ( 'NONE',  ( -3.997168818122697864, 18.62592659277459006, 14.91349025610679746 ) ) ;
#160 = FACE_OUTER_BOUND ( 'NONE', #285, .T. ) ;
#161 =( GEOMETRIC_REPRESENTATION_CONTEXT ( 3 ) GLOBAL_UNCERTAINTY_ASSIGNED_CONTEXT ( ( #104 ) ) GLOBAL_UNIT_ASSIGNED_CONTEXT ( ( #197, #56, #35 ) ) REPRESENTATION_CONTEXT ( 'NONE', 'WORKASPACE' ) );
#162 = DIRECTION ( 'NONE',  ( -1.000000000000000000, 0.000000000000000000, -0.000000000000000000 ) ) ;
#163 = EDGE_LOOP ( 'NONE', ( #117, #221, #364, #227, #366, #192, #332, #132 ) ) ;
#164 = CARTESIAN_POINT ( 'NONE',  ( -0.07760903269836255669, 0.02536739462952376095, 28.35491412776584141 ) ) ;
#165 = CARTESIAN_POINT ( 'NONE',  ( -10.00638041259224842, -8.883031763861383823, 18.92252109415018779 ) ) ;
#166 = ORIENTED_EDGE ( 'NONE', *, *, #302, .F. ) ;
#167 = CONICAL_SURFACE ( 'NONE', #8, 18.95000000000000995, 0.7853981633974831400 ) ;
#168 = FACE_OUTER_BOUND ( 'NONE', #253, .T. ) ;
#169 = ORIENTED_EDGE ( 'NONE', *, *, #58, .F. ) ;
#170 = CIRCLE ( 'NONE', #270, 18.95000000000000995 ) ;
#171 = VERTEX_POINT ( 'NONE', #352 ) ;
#172 = CARTESIAN_POINT ( 'NONE',  ( 12.69612137642417693, -4.224263755305201151, 18.92252109415019490 ) ) ;
#173 = DIRECTION ( 'NONE',  ( -1.000000000000000000, 0.000000000000000000, 0.000000000000000000 ) ) ;
#174 = PLANE ( 'NONE',  #41 ) ;
#175 = EDGE_LOOP ( 'NONE', ( #123, #344, #205 ) ) ;
#176 = APPLICATION_CONTEXT ( 'automotive_design' ) ;
#177 = EDGE_CURVE ( 'NONE', #67, #198, #278, .T. ) ;
#178 = ORIENTED_EDGE ( 'NONE', *, *, #157, .F. ) ;
#179 = VECTOR ( 'NONE', #214, 1000.000000000000114 ) ;
#180 = CARTESIAN_POINT ( 'NONE',  ( 18.12911000742827028, -5.851313556678047867, 14.91349025610672285 ) ) ;
#181 = DIRECTION ( 'NONE',  ( 0.5968741507396999602, 0.000000000000000000, 0.8023348728422329268 ) ) ;
#182 = FILL_AREA_STYLE ('',( #154 ) ) ;
#183 = PRESENTATION_LAYER_ASSIGNMENT (  '', '', ( #196 ) ) ;
#184 = DIRECTION ( 'NONE',  ( 0.000000000000000000, 0.000000000000000000, -1.000000000000000000 ) ) ;
#185 = MANIFOLD_SOLID_BREP ( 'µ¹½Ç2', #136 ) ;
#186 = ADVANCED_FACE ( 'NONE', ( #111 ), #110, .T. ) ;
#187 = CARTESIAN_POINT ( 'NONE',  ( -19.05000000000000071, 0.000000000000000000, 2.862843113352324220 ) ) ;
#188 = ORIENTED_EDGE ( 'NONE', *, *, #177, .F. ) ;
#189 = DIRECTION ( 'NONE',  ( 0.000000000000000000, 0.000000000000000000, 1.000000000000000000 ) ) ;
#190 = ORIENTED_EDGE ( 'NONE', *, *, #100, .T. ) ;
#191 = LINE ( 'NONE', #86, #226 ) ;
#192 = ORIENTED_EDGE ( 'NONE', *, *, #139, .F. ) ;
#193 = EDGE_CURVE ( 'NONE', #67, #275, #224, .T. ) ;
#194 = CARTESIAN_POINT ( 'NONE',  ( -3.997168818122697864, 18.62592659277459006, 14.91349025610679746 ) ) ;
#195 = ORIENTED_EDGE ( 'NONE', *, *, #217, .T. ) ;
#196 = STYLED_ITEM ( 'NONE', ( #237 ), #185 ) ;
#197 =( LENGTH_UNIT ( ) NAMED_UNIT ( * ) SI_UNIT ( .MILLI., .METRE. ) );
#198 = VERTEX_POINT ( 'NONE', #271 ) ;
#199 = FILL_AREA_STYLE ('',( #337 ) ) ;
#200 = ORIENTED_EDGE ( 'NONE', *, *, #114, .F. ) ;
#201 = EDGE_CURVE ( 'NONE', #10, #231, #51, .T. ) ;
#202 = DIRECTION ( 'NONE',  ( 0.7071067811865721087, 0.000000000000000000, 0.7071067811865230368 ) ) ;
#203 = LINE ( 'NONE', #254, #156 ) ;
#204 = AXIS2_PLACEMENT_3D ( 'NONE', #152, #74, #181 ) ;
#205 = ORIENTED_EDGE ( 'NONE', *, *, #34, .T. ) ;
#206 = EDGE_LOOP ( 'NONE', ( #335, #149, #36, #96 ) ) ;
#207 = CARTESIAN_POINT ( 'NONE',  ( -9.911935671721698426, -8.988294249685592874, 18.92252109415019135 ) ) ;
#208 = LINE ( 'NONE', #129, #342 ) ;
#209 = EDGE_CURVE ( 'NONE', #329, #231, #17, .T. ) ;
#210 = CARTESIAN_POINT ( 'NONE',  ( -14.13194118930553955, -12.77461303609661769, 14.91349025610682766 ) ) ;
#211 = VECTOR ( 'NONE', #63, 1000.000000000000000 ) ;
#212 = EDGE_CURVE ( 'NONE', #198, #329, #191, .T. ) ;
#213 = CARTESIAN_POINT ( 'NONE',  ( -9.911935671721698426, -8.988294249685592874, 18.92252109415019135 ) ) ;
#214 = DIRECTION ( 'NONE',  ( 0.6077332452617957292, 0.5452769656516143204, 0.5773502691896265082 ) ) ;
#215 = VECTOR ( 'NONE', #101, 1000.000000000000000 ) ;
#216 = DIRECTION ( 'NONE',  ( 0.4297322988771252184, 0.3855690400370798132, -0.8164965809277255904 ) ) ;
#217 = EDGE_CURVE ( 'NONE', #338, #30, #314, .T. ) ;
#218 = ORIENTED_EDGE ( 'NONE', *, *, #255, .F. ) ;
#219 = DIRECTION ( 'NONE',  ( -1.000000000000000000, 0.000000000000000000, 0.000000000000000000 ) ) ;
#220 = CARTESIAN_POINT ( 'NONE',  ( 19.05000000000000426, -1.990581087732830046, 10.29787978221845179 ) ) ;
#221 = ORIENTED_EDGE ( 'NONE', *, *, #279, .F. ) ;
#222 = DIRECTION ( 'NONE',  ( -0.6077332452617957292, -0.5452769656516143204, -0.5773502691896263972 ) ) ;
#223 = CARTESIAN_POINT ( 'NONE',  ( -3.127921797555895278, -24.94783146946690522, -5.140901641774372699 ) ) ;
#224 =( BOUNDED_CURVE ( )  B_SPLINE_CURVE ( 3, ( #194, #356, #243, #134 ),
 .UNSPECIFIED., .F., .F. ) 
 B_SPLINE_CURVE_WITH_KNOTS ( ( 4, 4 ),
 ( 5.239699611126955148, 6.599099828102190202 ),
 .UNSPECIFIED. ) 
 CURVE ( )  GEOMETRIC_REPRESENTATION_ITEM ( )  RATIONAL_B_SPLINE_CURVE ( ( 1.000000000000000000, 0.8518408356490534405, 0.8518408356490534405, 1.000000000000000000 ) ) 
 REPRESENTATION_ITEM ( '' )  );
#225 = CARTESIAN_POINT ( 'NONE',  ( 19.05000000000000071, 2.332952152375708043E-15, 0.06999999999998500477 ) ) ;
#226 = VECTOR ( 'NONE', #358, 1000.000000000000227 ) ;
#227 = ORIENTED_EDGE ( 'NONE', *, *, #34, .F. ) ;
#228 = COLOUR_RGB ( '',1.000000000000000000, 1.000000000000000000, 1.000000000000000000 ) ;
#229 = ADVANCED_FACE ( 'NONE', ( #160 ), #131, .T. ) ;
#230 = FACE_OUTER_BOUND ( 'NONE', #2, .T. ) ;
#231 = VERTEX_POINT ( 'NONE', #301 ) ;
#232 = PLANE ( 'NONE',  #94 ) ;
#233 = CARTESIAN_POINT ( 'NONE',  ( -14.22638593017612152, -12.66935055027237667, 14.91349025610663226 ) ) ;
#234 = AXIS2_PLACEMENT_3D ( 'NONE', #299, #84, #162 ) ;
#235 = ADVANCED_FACE ( 'NONE', ( #334 ), #277, .T. ) ;
#236 = DIRECTION ( 'NONE',  ( -1.000000000000000000, 0.000000000000000000, 0.000000000000000000 ) ) ;
#237 = PRESENTATION_STYLE_ASSIGNMENT (( #261 ) ) ;
#238 = APPLICATION_PROTOCOL_DEFINITION ( 'draft international standard', 'automotive_design', 1998, #66 ) ;
#239 = PLANE ( 'NONE',  #204 ) ;
#240 = EDGE_CURVE ( 'NONE', #91, #198, #97, .T. ) ;
#241 =( GEOMETRIC_REPRESENTATION_CONTEXT ( 3 ) GLOBAL_UNCERTAINTY_ASSIGNED_CONTEXT ( ( #355 ) ) GLOBAL_UNIT_ASSIGNED_CONTEXT ( ( #144, #60, #146 ) ) REPRESENTATION_CONTEXT ( 'NONE', 'WORKASPACE' ) );
#242 = CARTESIAN_POINT ( 'NONE',  ( 18.12911000742827028, -5.851313556678047867, 14.91349025610672285 ) ) ;
#243 = CARTESIAN_POINT ( 'NONE',  ( -19.05000000000000426, 9.371128068985827397, -1.254607185639662781 ) ) ;
#244 = VERTEX_POINT ( 'NONE', #242 ) ;
#245 = CARTESIAN_POINT ( 'NONE',  ( -3.858786460898127491, 18.65508689471023018, 14.91349025610667134 ) ) ;
#246 = ORIENTED_EDGE ( 'NONE', *, *, #212, .T. ) ;
#247 = CARTESIAN_POINT ( 'NONE',  ( -0.07760903269836255669, 0.02536739462952376095, 28.35491412776584141 ) ) ;
#248 = ORIENTED_EDGE ( 'NONE', *, *, #125, .F. ) ;
#249 = CARTESIAN_POINT ( 'NONE',  ( 0.000000000000000000, 0.000000000000000000, -0.03000000000000051237 ) ) ;
#250 = CARTESIAN_POINT ( 'NONE',  ( 12.92907422810245066, -21.56425814640432392, -5.140901641774498820 ) ) ;
#251 = EDGE_CURVE ( 'NONE', #329, #244, #81, .T. ) ;
#252 = DIRECTION ( 'NONE',  ( 0.7760903269836909590, -0.2536739462952663504, -0.5773502691896263972 ) ) ;
#253 = EDGE_LOOP ( 'NONE', ( #257, #140, #218 ) ) ;
#254 = CARTESIAN_POINT ( 'NONE',  ( -2.828123321056466022, 13.07813521723095640, 18.92252109415019135 ) ) ;
#255 = EDGE_CURVE ( 'NONE', #120, #231, #49, .T. ) ;
#256 = CARTESIAN_POINT ( 'NONE',  ( 12.74005899277815601, -4.089840967545367967, 18.92252109415019135 ) ) ;
#257 = ORIENTED_EDGE ( 'NONE', *, *, #302, .T. ) ;
#258 = AXIS2_PLACEMENT_3D ( 'NONE', #19, #54, #82 ) ;
#259 = AXIS2_PLACEMENT_3D ( 'NONE', #127, #184, #236 ) ;
#260 = ORIENTED_EDGE ( 'NONE', *, *, #217, .F. ) ;
#261 = SURFACE_STYLE_USAGE ( .BOTH. , #158 ) ;
#262 = ADVANCED_FACE ( 'NONE', ( #333 ), #363, .F. ) ;
#263 = FACE_OUTER_BOUND ( 'NONE', #362, .T. ) ;
#264 = VECTOR ( 'NONE', #202, 1000.000000000000000 ) ;
#265 = STYLED_ITEM ( 'NONE', ( #57 ), #297 ) ;
#266 = CARTESIAN_POINT ( 'NONE',  ( -2.828123321056466022, 13.07813521723095285, 18.92252109415019490 ) ) ;
#267 = ADVANCED_FACE ( 'NONE', ( #328 ), #331, .T. ) ;
#268 = LINE ( 'NONE', #71, #215 ) ;
#269 = DIRECTION ( 'NONE',  ( -0.000000000000000000, -0.000000000000000000, -1.000000000000000000 ) ) ;
#270 = AXIS2_PLACEMENT_3D ( 'NONE', #316, #64, #173 ) ;
#271 = CARTESIAN_POINT ( 'NONE',  ( -3.858786460898127491, 18.65508689471023018, 14.91349025610667134 ) ) ;
#272 = DIRECTION ( 'NONE',  ( -0.6678251671698057779, 0.7443181753085308383, -2.454577877075438264E-14 ) ) ;
#273 = ORIENTED_EDGE ( 'NONE', *, *, #347, .F. ) ;
#274 = CARTESIAN_POINT ( 'NONE',  ( 0.000000000000000000, 0.000000000000000000, 15.00000000000000000 ) ) ;
#275 = VERTEX_POINT ( 'NONE', #187 ) ;
#276 = PRODUCT_DEFINITION ( 'Î´Öª', '', #321, #24 ) ;
#277 = CYLINDRICAL_SURFACE ( 'NONE', #308, 19.05000000000000071 ) ;
#278 =( BOUNDED_CURVE ( )  B_SPLINE_CURVE ( 3, ( #11, #351, #39, #13 ),
 .UNSPECIFIED., .F., .F. ) 
 B_SPLINE_CURVE_WITH_KNOTS ( ( 4, 4 ),
 ( 6.279473452035570169, 6.286897162323514365 ),
 .UNSPECIFIED. ) 
 CURVE ( )  GEOMETRIC_REPRESENTATION_ITEM ( )  RATIONAL_B_SPLINE_CURVE ( ( 1.000000000000000000, 0.9999954073824031120, 0.9999954073824031120, 1.000000000000000000 ) ) 
 REPRESENTATION_ITEM ( '' )  );
#279 = EDGE_CURVE ( 'NONE', #244, #91, #303, .T. ) ;
#280 = DIRECTION ( 'NONE',  ( 3.632890546729315132E-14, 6.555536819116137014E-14, 1.000000000000000000 ) ) ;
#281 = CARTESIAN_POINT ( 'NONE',  ( 18.08517239107431251, -5.985736344437795786, 14.91349025610657542 ) ) ;
#282 = PRODUCT_RELATED_PRODUCT_CATEGORY ( 'part', '', ( #298 ) ) ;
#283 = VECTOR ( 'NONE', #112, 1000.000000000000114 ) ;
#284 = LINE ( 'NONE', #172, #211 ) ;
#285 = EDGE_LOOP ( 'NONE', ( #79, #113 ) ) ;
#286 = ADVANCED_FACE ( 'NONE', ( #168 ), #25, .T. ) ;
#287 = DIRECTION ( 'NONE',  ( 0.000000000000000000, 0.000000000000000000, 1.000000000000000000 ) ) ;
#288 = FACE_OUTER_BOUND ( 'NONE', #27, .T. ) ;
#289 = VERTEX_POINT ( 'NONE', #119 ) ;
#290 = LINE ( 'NONE', #207, #330 ) ;
#291 = CARTESIAN_POINT ( 'NONE',  ( 18.08517239107431251, -5.985736344437795786, 14.91349025610657542 ) ) ;
#292 = EDGE_CURVE ( 'NONE', #231, #67, #203, .T. ) ;
#293 = SURFACE_STYLE_FILL_AREA ( #182 ) ;
#294 = CIRCLE ( 'NONE', #23, 19.05000000000000071 ) ;
#295 =( LENGTH_UNIT ( ) NAMED_UNIT ( * ) SI_UNIT ( .MILLI., .METRE. ) );
#296 = CARTESIAN_POINT ( 'NONE',  ( 0.000000000000000000, 0.000000000000000000, 0.06999999999998500477 ) ) ;
#297 = ADVANCED_BREP_SHAPE_REPRESENTATION ( 'GP26-038-1', ( #185, #360 ), #161 ) ;
#298 = PRODUCT ( 'GP26-038-1', 'GP26-038-1', '', ( #42 ) ) ;
#299 = CARTESIAN_POINT ( 'NONE',  ( 0.000000000000000000, 0.000000000000000000, -0.02999999999999999889 ) ) ;
#300 = VERTEX_POINT ( 'NONE', #9 ) ;
#301 = CARTESIAN_POINT ( 'NONE',  ( -0.07760903269836255669, 0.02536739462952376095, 28.35491412776584141 ) ) ;
#302 = EDGE_CURVE ( 'NONE', #120, #329, #122, .T. ) ;
#303 =( BOUNDED_CURVE ( )  B_SPLINE_CURVE ( 3, ( #48, #22, #220, #137 ),
 .UNSPECIFIED., .F., .F. ) 
 B_SPLINE_CURVE_WITH_KNOTS ( ( 4, 4 ),
 ( 5.239699611126958700, 5.551902276905597233 ),
 .UNSPECIFIED. ) 
 CURVE ( )  GEOMETRIC_REPRESENTATION_ITEM ( )  RATIONAL_B_SPLINE_CURVE ( ( 1.000000000000000000, 0.9918939384876074294, 0.9918939384876074294, 1.000000000000000000 ) ) 
 REPRESENTATION_ITEM ( '' )  );
#304 = DIRECTION ( 'NONE',  ( 1.000000000000000000, 0.000000000000000000, 0.000000000000000000 ) ) ;
#305 = VERTEX_POINT ( 'NONE', #26 ) ;
#306 = CARTESIAN_POINT ( 'NONE',  ( 12.74005899277815601, -4.089840967545364414, 18.92252109415019135 ) ) ;
#307 = EDGE_LOOP ( 'NONE', ( #318, #354, #166, #273 ) ) ;
#308 = AXIS2_PLACEMENT_3D ( 'NONE', #274, #269, #219 ) ;
#309 = PRESENTATION_LAYER_ASSIGNMENT (  '', '', ( #265 ) ) ;
#310 = ORIENTED_EDGE ( 'NONE', *, *, #201, .T. ) ;
#311 = SURFACE_SIDE_STYLE ('',( #90 ) ) ;
#312 = ORIENTED_EDGE ( 'NONE', *, *, #193, .F. ) ;
#313 = LINE ( 'NONE', #341, #105 ) ;
#314 = CIRCLE ( 'NONE', #28, 19.05000000000000071 ) ;
#315 = DIRECTION ( 'NONE',  ( 0.3106858647308635146, 0.9505126477098743143, -7.357845784507145471E-14 ) ) ;
#316 = CARTESIAN_POINT ( 'NONE',  ( 0.000000000000000000, 0.000000000000000000, -0.02999999999999999889 ) ) ;
#317 = FACE_OUTER_BOUND ( 'NONE', #307, .T. ) ;
#318 = ORIENTED_EDGE ( 'NONE', *, *, #153, .F. ) ;
#319 = LINE ( 'NONE', #68, #264 ) ;
#320 = ADVANCED_FACE ( 'NONE', ( #230 ), #167, .T. ) ;
#321 = PRODUCT_DEFINITION_FORMATION_WITH_SPECIFIED_SOURCE ( 'ÈÎºÎ', '', #298, .NOT_KNOWN. ) ;
#322 = CARTESIAN_POINT ( 'NONE',  ( -19.05000000000000071, -4.724992182225216553, 4.938892051134427419 ) ) ;
#323 = DIRECTION ( 'NONE',  ( -0.1683570817218951743, 0.7989509119468813925, -0.5773502691896261751 ) ) ;
#324 = CARTESIAN_POINT ( 'NONE',  ( 0.000000000000000000, 0.000000000000000000, -0.03000000000000051237 ) ) ;
#325 = ADVANCED_FACE ( 'NONE', ( #317 ), #174, .F. ) ;
#326 = SHAPE_DEFINITION_REPRESENTATION ( #143, #297 ) ;
#327 = CARTESIAN_POINT ( 'NONE',  ( 18.09998454924802047, -5.940983214891025987, 14.91336652731779289 ) ) ;
#328 = FACE_OUTER_BOUND ( 'NONE', #175, .T. ) ;
#329 = VERTEX_POINT ( 'NONE', #343 ) ;
#330 = VECTOR ( 'NONE', #222, 1000.000000000000114 ) ;
#331 = PLANE ( 'NONE',  #258 ) ;
#332 = ORIENTED_EDGE ( 'NONE', *, *, #125, .T. ) ;
#333 = FACE_OUTER_BOUND ( 'NONE', #206, .T. ) ;
#334 = FACE_OUTER_BOUND ( 'NONE', #163, .T. ) ;
#335 = ORIENTED_EDGE ( 'NONE', *, *, #255, .T. ) ;
#336 = AXIS2_PLACEMENT_3D ( 'NONE', #324, #189, #304 ) ;
#337 = FILL_AREA_STYLE_COLOUR ( '', #228 ) ;
#338 = VERTEX_POINT ( 'NONE', #225 ) ;
#339 = ORIENTED_EDGE ( 'NONE', *, *, #193, .T. ) ;
#340 = CARTESIAN_POINT ( 'NONE',  ( 0.03880451634917925219, -0.01268369731477188116, 28.35491412776584141 ) ) ;
#341 = CARTESIAN_POINT ( 'NONE',  ( 19.05000000000000071, 2.332952152375708043E-15, 15.00000000000000000 ) ) ;
#342 = VECTOR ( 'NONE', #348, 1000.000000000000000 ) ;
#343 = CARTESIAN_POINT ( 'NONE',  ( 0.06077332452617800057, 0.05452769656515442376, 28.35491412776583431 ) ) ;
#344 = ORIENTED_EDGE ( 'NONE', *, *, #21, .T. ) ;
#345 = CARTESIAN_POINT ( 'NONE',  ( 9.989544704420044496, 8.962926855056057462, 9.490128060534569698 ) ) ;
#346 = DIRECTION ( 'NONE',  ( -1.000000000000000000, 0.000000000000000000, 0.000000000000000000 ) ) ;
#347 = EDGE_CURVE ( 'NONE', #289, #120, #284, .T. ) ;
#348 = DIRECTION ( 'NONE',  ( -0.000000000000000000, -0.000000000000000000, -1.000000000000000000 ) ) ;
#349 = UNCERTAINTY_MEASURE_WITH_UNIT (LENGTH_MEASURE( 1.000000000000000082E-05 ), #295, 'distance_accuracy_value', 'NONE');
#350 = ADVANCED_FACE ( 'NONE', ( #141 ), #4, .T. ) ;
#351 = CARTESIAN_POINT ( 'NONE',  ( -3.951077551326302117, 18.63581788991401922, 14.91336652731779289 ) ) ;
#352 = CARTESIAN_POINT ( 'NONE',  ( -14.13194118930553955, -12.77461303609661769, 14.91349025610682766 ) ) ;
#353 = DIRECTION ( 'NONE',  ( 0.000000000000000000, 0.000000000000000000, 1.000000000000000000 ) ) ;
#354 = ORIENTED_EDGE ( 'NONE', *, *, #251, .F. ) ;
#355 = UNCERTAINTY_MEASURE_WITH_UNIT (LENGTH_MEASURE( 1.000000000000000082E-05 ), #144, 'distance_accuracy_value', 'NONE');
#356 = CARTESIAN_POINT ( 'NONE',  ( -13.15968553751478964, 16.65962838238171173, 3.460924416995388331 ) ) ;
#357 = ORIENTED_EDGE ( 'NONE', *, *, #240, .T. ) ;
#358 = DIRECTION ( 'NONE',  ( 0.1683570817218952020, -0.7989509119468812814, 0.5773502691896261751 ) ) ;
#359 = VECTOR ( 'NONE', #315, 1000.000000000000000 ) ;
#360 = AXIS2_PLACEMENT_3D ( 'NONE', #76, #102, #73 ) ;
#361 = DIRECTION ( 'NONE',  ( -0.6077332452617957292, -0.5452769656516144314, -0.5773502691896263972 ) ) ;
#362 = EDGE_LOOP ( 'NONE', ( #339, #7, #310, #83 ) ) ;
#363 = PLANE ( 'NONE',  #75 ) ;
#364 = ORIENTED_EDGE ( 'NONE', *, *, #153, .T. ) ;
#365 = DIRECTION ( 'NONE',  ( 0.6077332452617961733, 0.5452769656516150976, 0.5773502691896252870 ) ) ;
#366 = ORIENTED_EDGE ( 'NONE', *, *, #88, .T. ) ;
#367 = VECTOR ( 'NONE', #108, 1000.000000000000114 ) ;
ENDSEC;
END-ISO-10303-21;
