ISO-10303-21;
HEADER;
FILE_DESCRIPTION (( 'STEP AP203' ),
    '1' );
FILE_NAME ('373524.STEP',
    '2019-07-24T07:42:59',
    ( '' ),
    ( '' ),
    'SwSTEP 2.0',
    'SolidWorks 2016',
    '' );
FILE_SCHEMA (( 'CONFIG_CONTROL_DESIGN' ));
ENDSEC;

DATA;
#1 = LOCAL_TIME ( 15, 42, 59.00000000000000000, #243 ) ;
#2 = PERSON_AND_ORGANIZATION_ROLE ( 'creator' ) ;
#3 = VERTEX_POINT ( 'NONE', #212 ) ;
#4 = CC_DESIGN_DATE_AND_TIME_ASSIGNMENT ( #185, #234, ( #241 ) ) ;
#5 = CALENDAR_DATE ( 2019, 24, 7 ) ;
#6 = APPROVAL_ROLE ( '' ) ;
#7 = DATE_AND_TIME ( #151, #200 ) ;
#8 = COORDINATED_UNIVERSAL_TIME_OFFSET ( 8, 0, .AHEAD. ) ;
#9 = CC_DESIGN_DATE_AND_TIME_ASSIGNMENT ( #190, #33, ( #164 ) ) ;
#10 = ORIENTED_EDGE ( 'NONE', *, *, #209, .F. ) ;
#11 = APPROVAL_ROLE ( '' ) ;
#12 = ADVANCED_FACE ( 'NONE', ( #215 ), #163, .T. ) ;
#13 = LOCAL_TIME ( 15, 42, 59.00000000000000000, #57 ) ;
#14 = LINE ( 'NONE', #174, #95 ) ;
#15 = AXIS2_PLACEMENT_3D ( 'NONE', #158, #48, #126 ) ;
#16 = SHAPE_DEFINITION_REPRESENTATION ( #149, #44 ) ;
#17 = EDGE_LOOP ( 'NONE', ( #180, #117, #37, #137 ) ) ;
#18 = APPLICATION_CONTEXT ( 'configuration controlled 3d designs of mechanical parts and assemblies' ) ;
#19 = APPROVAL ( #81, 'Î´Ö¸¶¨' ) ;
#20 = CARTESIAN_POINT ( 'NONE',  ( 12.49999999999999600, 1.530808498934191100E-015, 0.0000000000000000000 ) ) ;
#21 = DIRECTION ( 'NONE',  ( 0.0000000000000000000, 0.0000000000000000000, 1.000000000000000000 ) ) ;
#22 = DATE_AND_TIME ( #242, #76 ) ;
#23 = APPROVAL_ROLE ( '' ) ;
#24 = CARTESIAN_POINT ( 'NONE',  ( 12.49999999999999600, 1.530808498934191100E-015, 2.999999999999999100 ) ) ;
#25 = DIRECTION ( 'NONE',  ( -0.9503529315424150700, 0.0000000000000000000, 0.3111740758944067100 ) ) ;
#26 = CC_DESIGN_PERSON_AND_ORGANIZATION_ASSIGNMENT ( #112, #182, ( #176 ) ) ;
#27 = DATE_AND_TIME ( #146, #53 ) ;
#28 = LINE ( 'NONE', #189, #73 ) ;
#29 = AXIS2_PLACEMENT_3D ( 'NONE', #195, #68, #121 ) ;
#30 = EDGE_LOOP ( 'NONE', ( #51, #167, #187, #230 ) ) ;
#31 = APPROVAL_STATUS ( 'not_yet_approved' ) ;
#32 = PERSON_AND_ORGANIZATION ( #197, #219 ) ;
#33 = DATE_TIME_ROLE ( 'creation_date' ) ;
#34 = PRODUCT_DEFINITION_FORMATION_WITH_SPECIFIED_SOURCE ( 'ÈÎºÎ', '', #125, .NOT_KNOWN. ) ;
#35 = CALENDAR_DATE ( 2019, 24, 7 ) ;
#36 = CC_DESIGN_SECURITY_CLASSIFICATION ( #193, ( #34 ) ) ;
#37 = ORIENTED_EDGE ( 'NONE', *, *, #66, .T. ) ;
#38 = CC_DESIGN_PERSON_AND_ORGANIZATION_ASSIGNMENT ( #104, #228, ( #186 ) ) ;
#39 = PERSON_AND_ORGANIZATION ( #197, #219 ) ;
#40 = ADVANCED_FACE ( 'NONE', ( #88 ), #41, .T. ) ;
#41 = CYLINDRICAL_SURFACE ( 'NONE', #46, 12.49999999999999600 ) ;
#42 = APPROVAL_PERSON_ORGANIZATION ( #162, #218, #6 ) ;
#43 = DIRECTION ( 'NONE',  ( 1.000000000000000000, 0.0000000000000000000, -0.0000000000000000000 ) ) ;
#44 = ADVANCED_BREP_SHAPE_REPRESENTATION ( '373524', ( #225, #138 ), #72 ) ;
#45 = SECURITY_CLASSIFICATION_LEVEL ( 'unclassified' ) ;
#46 = AXIS2_PLACEMENT_3D ( 'NONE', #192, #90, #208 ) ;
#47 = APPLICATION_CONTEXT ( 'configuration controlled 3d designs of mechanical parts and assemblies' ) ;
#48 = DIRECTION ( 'NONE',  ( 0.0000000000000000000, 0.0000000000000000000, 1.000000000000000000 ) ) ;
#49 = PLANE ( 'NONE',  #52 ) ;
#50 = LOCAL_TIME ( 15, 42, 59.00000000000000000, #235 ) ;
#51 = ORIENTED_EDGE ( 'NONE', *, *, #209, .T. ) ;
#52 = AXIS2_PLACEMENT_3D ( 'NONE', #157, #21, #43 ) ;
#53 = LOCAL_TIME ( 15, 42, 59.00000000000000000, #207 ) ;
#54 = COORDINATED_UNIVERSAL_TIME_OFFSET ( 8, 0, .AHEAD. ) ;
#55 = CC_DESIGN_PERSON_AND_ORGANIZATION_ASSIGNMENT ( #231, #206, ( #94 ) ) ;
#56 = PERSON_AND_ORGANIZATION_ROLE ( 'creator' ) ;
#57 = COORDINATED_UNIVERSAL_TIME_OFFSET ( 8, 0, .AHEAD. ) ;
#58 = APPROVAL_PERSON_ORGANIZATION ( #156, #19, #11 ) ;
#59 = LOCAL_TIME ( 15, 42, 59.00000000000000000, #184 ) ;
#60 = VERTEX_POINT ( 'NONE', #20 ) ;
#61 = DATE_TIME_ROLE ( 'classification_date' ) ;
#62 = AXIS2_PLACEMENT_3D ( 'NONE', #64, #123, #253 ) ;
#63 = APPROVAL_DATE_TIME ( #27, #173 ) ;
#64 = CARTESIAN_POINT ( 'NONE',  ( 0.0000000000000000000, 0.0000000000000000000, 0.0000000000000000000 ) ) ;
#65 = CARTESIAN_POINT ( 'NONE',  ( -12.49999999999999600, 0.0000000000000000000, 11.18575040825553100 ) ) ;
#66 = EDGE_CURVE ( 'NONE', #84, #3, #14, .T. ) ;
#67 =( LENGTH_UNIT ( ) NAMED_UNIT ( * ) SI_UNIT ( .MILLI., .METRE. ) );
#68 = DIRECTION ( 'NONE',  ( -0.0000000000000000000, -0.0000000000000000000, -1.000000000000000000 ) ) ;
#69 = APPROVAL_STATUS ( 'not_yet_approved' ) ;
#70 = CC_DESIGN_DATE_AND_TIME_ASSIGNMENT ( #101, #61, ( #193 ) ) ;
#71 = DIRECTION ( 'NONE',  ( -0.3111740758944067100, 0.0000000000000000000, -0.9503529315424150700 ) ) ;
#72 =( GEOMETRIC_REPRESENTATION_CONTEXT ( 3 ) GLOBAL_UNCERTAINTY_ASSIGNED_CONTEXT ( ( #98 ) ) GLOBAL_UNIT_ASSIGNED_CONTEXT ( ( #67, #191, #89 ) ) REPRESENTATION_CONTEXT ( 'NONE', 'WORKASPACE' ) );
#73 = VECTOR ( 'NONE', #140, 1000.000000000000000 ) ;
#74 = DATE_AND_TIME ( #237, #59 ) ;
#75 = EDGE_LOOP ( 'NONE', ( #10, #131 ) ) ;
#76 = LOCAL_TIME ( 15, 42, 59.00000000000000000, #8 ) ;
#77 = AXIS2_PLACEMENT_3D ( 'NONE', #236, #71, #25 ) ;
#78 = DESIGN_CONTEXT ( 'detailed design', #239, 'design' ) ;
#79 = APPLICATION_PROTOCOL_DEFINITION ( 'international standard', 'config_control_design', 1994, #239 ) ;
#80 = COORDINATED_UNIVERSAL_TIME_OFFSET ( 8, 0, .AHEAD. ) ;
#81 = APPROVAL_STATUS ( 'not_yet_approved' ) ;
#82 = CC_DESIGN_APPROVAL ( #148, ( #241 ) ) ;
#83 = PRODUCT_RELATED_PRODUCT_CATEGORY ( 'detail', '', ( #125 ) ) ;
#84 = VERTEX_POINT ( 'NONE', #65 ) ;
#85 = CC_DESIGN_APPROVAL ( #19, ( #164 ) ) ;
#86 = APPROVAL_STATUS ( 'not_yet_approved' ) ;
#87 = CARTESIAN_POINT ( 'NONE',  ( 0.0000000000000000000, 0.0000000000000000000, 0.0000000000000000000 ) ) ;
#88 = FACE_OUTER_BOUND ( 'NONE', #17, .T. ) ;
#89 =( NAMED_UNIT ( * ) SI_UNIT ( $, .STERADIAN. ) SOLID_ANGLE_UNIT ( ) );
#90 = DIRECTION ( 'NONE',  ( -0.0000000000000000000, -0.0000000000000000000, -1.000000000000000000 ) ) ;
#91 = CARTESIAN_POINT ( 'NONE',  ( 12.50000000000000000, 24.99999999999998900, 2.999999999999999100 ) ) ;
#92 = CARTESIAN_POINT ( 'NONE',  ( 12.50000000000000000, -24.99999999999998900, 2.999999999999999100 ) ) ;
#93 = PERSON_AND_ORGANIZATION ( #197, #219 ) ;
#94 = PRODUCT_DEFINITION_FORMATION_WITH_SPECIFIED_SOURCE ( 'ÈÎºÎ', '', #176, .NOT_KNOWN. ) ;
#95 = VECTOR ( 'NONE', #124, 1000.000000000000000 ) ;
#96 = EDGE_CURVE ( 'NONE', #128, #60, #28, .T. ) ;
#97 = APPROVAL_PERSON_ORGANIZATION ( #32, #148, #23 ) ;
#98 = UNCERTAINTY_MEASURE_WITH_UNIT (LENGTH_MEASURE( 1.000000000000000100E-005 ), #67, 'distance_accuracy_value', 'NONE');
#99 = CC_DESIGN_APPROVAL ( #216, ( #186 ) ) ;
#100 = MECHANICAL_CONTEXT ( 'NONE', #188, 'mechanical' ) ;
#101 = DATE_AND_TIME ( #5, #160 ) ;
#102 = PERSON_AND_ORGANIZATION ( #197, #219 ) ;
#103 =( BOUNDED_CURVE ( )  B_SPLINE_CURVE ( 3, ( #145, #210, #91, #24 ),
 .UNSPECIFIED., .F., .F. ) 
 B_SPLINE_CURVE_WITH_KNOTS ( ( 4, 4 ),
 ( 3.141592653589793100, 6.283185307179586200 ),
 .UNSPECIFIED. ) 
 CURVE ( )  GEOMETRIC_REPRESENTATION_ITEM ( )  RATIONAL_B_SPLINE_CURVE ( ( 1.000000000000000000, 0.3333333333333333700, 0.3333333333333333700, 1.000000000000000000 ) ) 
 REPRESENTATION_ITEM ( '' )  );
#104 = PERSON_AND_ORGANIZATION ( #197, #219 ) ;
#105 = PRODUCT_RELATED_PRODUCT_CATEGORY ( 'detail', '', ( #176 ) ) ;
#106 = LOCAL_TIME ( 15, 42, 59.00000000000000000, #203 ) ;
#107 = CARTESIAN_POINT ( 'NONE',  ( 12.49999999999999600, 1.530808498934191100E-015, 2.999999999999999100 ) ) ;
#108 = CARTESIAN_POINT ( 'NONE',  ( 0.0000000000000000000, 0.0000000000000000000, 0.0000000000000000000 ) ) ;
#109 = PRODUCT_DEFINITION_SHAPE ( 'NONE', 'NONE',  #164 ) ;
#110 = MECHANICAL_CONTEXT ( 'NONE', #18, 'mechanical' ) ;
#111 = CALENDAR_DATE ( 2019, 24, 7 ) ;
#112 = PERSON_AND_ORGANIZATION ( #197, #219 ) ;
#113 = DATE_AND_TIME ( #248, #50 ) ;
#114 = APPLICATION_PROTOCOL_DEFINITION ( 'international standard', 'config_control_design', 1994, #188 ) ;
#115 = PERSON_AND_ORGANIZATION ( #197, #219 ) ;
#116 = ADVANCED_FACE ( 'NONE', ( #233 ), #175, .F. ) ;
#117 = ORIENTED_EDGE ( 'NONE', *, *, #170, .T. ) ;
#118 = CC_DESIGN_PERSON_AND_ORGANIZATION_ASSIGNMENT ( #102, #155, ( #94 ) ) ;
#119 = PERSON_AND_ORGANIZATION_ROLE ( 'creator' ) ;
#120 = CC_DESIGN_APPROVAL ( #173, ( #34 ) ) ;
#121 = DIRECTION ( 'NONE',  ( -1.000000000000000000, 0.0000000000000000000, 0.0000000000000000000 ) ) ;
#122 = APPLICATION_PROTOCOL_DEFINITION ( 'international standard', 'config_control_design', 1994, #47 ) ;
#123 = DIRECTION ( 'NONE',  ( 0.0000000000000000000, 0.0000000000000000000, 1.000000000000000000 ) ) ;
#124 = DIRECTION ( 'NONE',  ( -0.0000000000000000000, -0.0000000000000000000, -1.000000000000000000 ) ) ;
#125 = PRODUCT ( '373524', '373524', '', ( #110 ) ) ;
#126 = DIRECTION ( 'NONE',  ( 1.000000000000000000, 0.0000000000000000000, 0.0000000000000000000 ) ) ;
#127 = APPROVAL_STATUS ( 'not_yet_approved' ) ;
#128 = VERTEX_POINT ( 'NONE', #107 ) ;
#129 = PERSON_AND_ORGANIZATION ( #197, #219 ) ;
#130 = CC_DESIGN_SECURITY_CLASSIFICATION ( #186, ( #94 ) ) ;
#131 = ORIENTED_EDGE ( 'NONE', *, *, #170, .F. ) ;
#132 = CC_DESIGN_PERSON_AND_ORGANIZATION_ASSIGNMENT ( #39, #141, ( #125 ) ) ;
#133 = APPROVAL_PERSON_ORGANIZATION ( #177, #173, #249 ) ;
#134 = CLOSED_SHELL ( 'NONE', ( #12, #40, #240, #116 ) ) ;
#135 = PERSON_AND_ORGANIZATION ( #197, #219 ) ;
#136 = PERSON_AND_ORGANIZATION_ROLE ( 'design_supplier' ) ;
#137 = ORIENTED_EDGE ( 'NONE', *, *, #199, .T. ) ;
#138 = AXIS2_PLACEMENT_3D ( 'NONE', #87, #211, #168 ) ;
#139 = LOCAL_TIME ( 15, 42, 59.00000000000000000, #54 ) ;
#140 = DIRECTION ( 'NONE',  ( -0.0000000000000000000, -0.0000000000000000000, -1.000000000000000000 ) ) ;
#141 = PERSON_AND_ORGANIZATION_ROLE ( 'design_owner' ) ;
#142 = DIRECTION ( 'NONE',  ( 1.000000000000000000, 0.0000000000000000000, 0.0000000000000000000 ) ) ;
#143 = APPROVAL_STATUS ( 'not_yet_approved' ) ;
#144 =( BOUNDED_CURVE ( )  B_SPLINE_CURVE ( 3, ( #147, #92, #159, #214 ),
 .UNSPECIFIED., .F., .T. ) 
 B_SPLINE_CURVE_WITH_KNOTS ( ( 4, 4 ),
 ( 0.0000000000000000000, 3.141592653589793100 ),
 .UNSPECIFIED. ) 
 CURVE ( )  GEOMETRIC_REPRESENTATION_ITEM ( )  RATIONAL_B_SPLINE_CURVE ( ( 1.000000000000000000, 0.3333333333333333700, 0.3333333333333333700, 1.000000000000000000 ) ) 
 REPRESENTATION_ITEM ( '' )  );
#145 = CARTESIAN_POINT ( 'NONE',  ( -12.49999999999999600, 0.0000000000000000000, 11.18575040825553100 ) ) ;
#146 = CALENDAR_DATE ( 2019, 24, 7 ) ;
#147 = CARTESIAN_POINT ( 'NONE',  ( 12.49999999999999600, 1.530808498934191100E-015, 2.999999999999999100 ) ) ;
#148 = APPROVAL ( #143, 'Î´Ö¸¶¨' ) ;
#149 = PRODUCT_DEFINITION_SHAPE ( 'NONE', 'NONE',  #241 ) ;
#150 = CALENDAR_DATE ( 2019, 24, 7 ) ;
#151 = CALENDAR_DATE ( 2019, 24, 7 ) ;
#152 = CALENDAR_DATE ( 2019, 24, 7 ) ;
#153 = APPROVAL ( #31, 'Î´Ö¸¶¨' ) ;
#154 = APPROVAL_PERSON_ORGANIZATION ( #181, #216, #172 ) ;
#155 = PERSON_AND_ORGANIZATION_ROLE ( 'creator' ) ;
#156 = PERSON_AND_ORGANIZATION ( #197, #219 ) ;
#157 = CARTESIAN_POINT ( 'NONE',  ( 0.0000000000000000000, 0.0000000000000000000, 0.0000000000000000000 ) ) ;
#158 = CARTESIAN_POINT ( 'NONE',  ( 0.0000000000000000000, 0.0000000000000000000, 0.0000000000000000000 ) ) ;
#159 = CARTESIAN_POINT ( 'NONE',  ( -12.49999999999999500, -24.99999999999998900, 11.18575040825552900 ) ) ;
#160 = LOCAL_TIME ( 15, 42, 59.00000000000000000, #80 ) ;
#161 = CIRCLE ( 'NONE', #15, 12.49999999999999600 ) ;
#162 = PERSON_AND_ORGANIZATION ( #197, #219 ) ;
#163 = CYLINDRICAL_SURFACE ( 'NONE', #29, 12.49999999999999600 ) ;
#164 = PRODUCT_DEFINITION ( 'Î´Öª', '', #94, #78 ) ;
#165 = APPROVAL_ROLE ( '' ) ;
#166 = CC_DESIGN_PERSON_AND_ORGANIZATION_ASSIGNMENT ( #93, #136, ( #34 ) ) ;
#167 = ORIENTED_EDGE ( 'NONE', *, *, #96, .T. ) ;
#168 = DIRECTION ( 'NONE',  ( 1.000000000000000000, 0.0000000000000000000, 0.0000000000000000000 ) ) ;
#169 = EDGE_LOOP ( 'NONE', ( #183, #221 ) ) ;
#170 = EDGE_CURVE ( 'NONE', #128, #84, #144, .T. ) ;
#171 = PERSON_AND_ORGANIZATION_ROLE ( 'classification_officer' ) ;
#172 = APPROVAL_ROLE ( '' ) ;
#173 = APPROVAL ( #127, 'Î´Ö¸¶¨' ) ;
#174 = CARTESIAN_POINT ( 'NONE',  ( -12.49999999999999600, 0.0000000000000000000, 12.00000000000000000 ) ) ;
#175 = PLANE ( 'NONE',  #77 ) ;
#176 = PRODUCT ( '373524', '373524', '', ( #100 ) ) ;
#177 = PERSON_AND_ORGANIZATION ( #197, #219 ) ;
#178 = CC_DESIGN_APPROVAL ( #153, ( #94 ) ) ;
#179 = CC_DESIGN_PERSON_AND_ORGANIZATION_ASSIGNMENT ( #135, #119, ( #34 ) ) ;
#180 = ORIENTED_EDGE ( 'NONE', *, *, #96, .F. ) ;
#181 = PERSON_AND_ORGANIZATION ( #197, #219 ) ;
#182 = PERSON_AND_ORGANIZATION_ROLE ( 'design_owner' ) ;
#183 = ORIENTED_EDGE ( 'NONE', *, *, #199, .F. ) ;
#184 = COORDINATED_UNIVERSAL_TIME_OFFSET ( 8, 0, .AHEAD. ) ;
#185 = DATE_AND_TIME ( #111, #13 ) ;
#186 = SECURITY_CLASSIFICATION ( '', '', #45 ) ;
#187 = ORIENTED_EDGE ( 'NONE', *, *, #223, .T. ) ;
#188 = APPLICATION_CONTEXT ( 'configuration controlled 3d designs of mechanical parts and assemblies' ) ;
#189 = CARTESIAN_POINT ( 'NONE',  ( 12.49999999999999600, 1.530808498934191100E-015, 12.00000000000000000 ) ) ;
#190 = DATE_AND_TIME ( #35, #139 ) ;
#191 =( NAMED_UNIT ( * ) PLANE_ANGLE_UNIT ( ) SI_UNIT ( $, .RADIAN. ) );
#192 = CARTESIAN_POINT ( 'NONE',  ( 0.0000000000000000000, 0.0000000000000000000, 12.00000000000000000 ) ) ;
#193 = SECURITY_CLASSIFICATION ( '', '', #232 ) ;
#194 = DATE_TIME_ROLE ( 'classification_date' ) ;
#195 = CARTESIAN_POINT ( 'NONE',  ( 0.0000000000000000000, 0.0000000000000000000, 12.00000000000000000 ) ) ;
#196 = APPROVAL_DATE_TIME ( #201, #148 ) ;
#197 = PERSON ( 'Î´Ö¸¶¨', 'Î´Ö¸¶¨', 'Î´Ö¸¶¨', ('Î´Ö¸¶¨'), ('Î´Ö¸¶¨'), ('Î´Ö¸¶¨') ) ;
#198 = APPROVAL_DATE_TIME ( #220, #153 ) ;
#199 = EDGE_CURVE ( 'NONE', #3, #60, #161, .T. ) ;
#200 = LOCAL_TIME ( 15, 42, 59.00000000000000000, #251 ) ;
#201 = DATE_AND_TIME ( #152, #1 ) ;
#202 = CC_DESIGN_PERSON_AND_ORGANIZATION_ASSIGNMENT ( #115, #2, ( #241 ) ) ;
#203 = COORDINATED_UNIVERSAL_TIME_OFFSET ( 8, 0, .AHEAD. ) ;
#204 = CC_DESIGN_PERSON_AND_ORGANIZATION_ASSIGNMENT ( #129, #171, ( #193 ) ) ;
#205 = APPROVAL_DATE_TIME ( #7, #19 ) ;
#206 = PERSON_AND_ORGANIZATION_ROLE ( 'design_supplier' ) ;
#207 = COORDINATED_UNIVERSAL_TIME_OFFSET ( 8, 0, .AHEAD. ) ;
#208 = DIRECTION ( 'NONE',  ( -1.000000000000000000, 0.0000000000000000000, 0.0000000000000000000 ) ) ;
#209 = EDGE_CURVE ( 'NONE', #84, #128, #103, .T. ) ;
#210 = CARTESIAN_POINT ( 'NONE',  ( -12.50000000000000000, 24.99999999999998900, 11.18575040825553300 ) ) ;
#211 = DIRECTION ( 'NONE',  ( 0.0000000000000000000, 0.0000000000000000000, 1.000000000000000000 ) ) ;
#212 = CARTESIAN_POINT ( 'NONE',  ( -12.49999999999999600, 0.0000000000000000000, 0.0000000000000000000 ) ) ;
#213 = CC_DESIGN_APPROVAL ( #218, ( #193 ) ) ;
#214 = CARTESIAN_POINT ( 'NONE',  ( -12.49999999999999600, 0.0000000000000000000, 11.18575040825553100 ) ) ;
#215 = FACE_OUTER_BOUND ( 'NONE', #30, .T. ) ;
#216 = APPROVAL ( #69, 'Î´Ö¸¶¨' ) ;
#217 = APPROVAL_PERSON_ORGANIZATION ( #227, #153, #165 ) ;
#218 = APPROVAL ( #86, 'Î´Ö¸¶¨' ) ;
#219 = ORGANIZATION ( 'Î´Ö¸¶¨', 'Î´Ö¸¶¨', '' ) ;
#220 = DATE_AND_TIME ( #150, #106 ) ;
#221 = ORIENTED_EDGE ( 'NONE', *, *, #223, .F. ) ;
#222 = APPROVAL_DATE_TIME ( #22, #218 ) ;
#223 = EDGE_CURVE ( 'NONE', #60, #3, #226, .T. ) ;
#224 = PERSON_AND_ORGANIZATION ( #197, #219 ) ;
#225 = MANIFOLD_SOLID_BREP ( 'ÇÐ³ý-À­Éì1', #134 ) ;
#226 = CIRCLE ( 'NONE', #244, 12.49999999999999600 ) ;
#227 = PERSON_AND_ORGANIZATION ( #197, #219 ) ;
#228 = PERSON_AND_ORGANIZATION_ROLE ( 'classification_officer' ) ;
#229 = CC_DESIGN_DATE_AND_TIME_ASSIGNMENT ( #113, #194, ( #186 ) ) ;
#230 = ORIENTED_EDGE ( 'NONE', *, *, #66, .F. ) ;
#231 = PERSON_AND_ORGANIZATION ( #197, #219 ) ;
#232 = SECURITY_CLASSIFICATION_LEVEL ( 'unclassified' ) ;
#233 = FACE_OUTER_BOUND ( 'NONE', #75, .T. ) ;
#234 = DATE_TIME_ROLE ( 'creation_date' ) ;
#235 = COORDINATED_UNIVERSAL_TIME_OFFSET ( 8, 0, .AHEAD. ) ;
#236 = CARTESIAN_POINT ( 'NONE',  ( 12.49999999999999600, -25.00000000000000000, 3.000000000000000000 ) ) ;
#237 = CALENDAR_DATE ( 2019, 24, 7 ) ;
#238 = DESIGN_CONTEXT ( 'detailed design', #47, 'design' ) ;
#239 = APPLICATION_CONTEXT ( 'configuration controlled 3d designs of mechanical parts and assemblies' ) ;
#240 = ADVANCED_FACE ( 'NONE', ( #247 ), #49, .F. ) ;
#241 = PRODUCT_DEFINITION ( 'Î´Öª', '', #34, #238 ) ;
#242 = CALENDAR_DATE ( 2019, 24, 7 ) ;
#243 = COORDINATED_UNIVERSAL_TIME_OFFSET ( 8, 0, .AHEAD. ) ;
#244 = AXIS2_PLACEMENT_3D ( 'NONE', #108, #252, #142 ) ;
#245 = APPROVAL_DATE_TIME ( #74, #216 ) ;
#246 = CC_DESIGN_PERSON_AND_ORGANIZATION_ASSIGNMENT ( #224, #56, ( #164 ) ) ;
#247 = FACE_OUTER_BOUND ( 'NONE', #169, .T. ) ;
#248 = CALENDAR_DATE ( 2019, 24, 7 ) ;
#249 = APPROVAL_ROLE ( '' ) ;
#250 = APPLICATION_PROTOCOL_DEFINITION ( 'international standard', 'config_control_design', 1994, #18 ) ;
#251 = COORDINATED_UNIVERSAL_TIME_OFFSET ( 8, 0, .AHEAD. ) ;
#252 = DIRECTION ( 'NONE',  ( 0.0000000000000000000, 0.0000000000000000000, 1.000000000000000000 ) ) ;
#253 = DIRECTION ( 'NONE',  ( 1.000000000000000000, 0.0000000000000000000, 0.0000000000000000000 ) ) ;
ENDSEC;
END-ISO-10303-21;
