ISO-10303-21;
HEADER;
FILE_DESCRIPTION (( 'STEP AP203' ),
    '1' );
FILE_NAME ('373528.STEP',
    '2019-07-24T09:17:47',
    ( '' ),
    ( '' ),
    'SwSTEP 2.0',
    'SolidWorks 2016',
    '' );
FILE_SCHEMA (( 'CONFIG_CONTROL_DESIGN' ));
ENDSEC;

DATA;
#1 = PERSON_AND_ORGANIZATION ( #134, #36 ) ;
#2 = EDGE_CURVE ( 'NONE', #26, #41, #121, .T. ) ;
#3 = CALENDAR_DATE ( 2019, 24, 7 ) ;
#4 = CC_DESIGN_PERSON_AND_ORGANIZATION_ASSIGNMENT ( #234, #52, ( #60 ) ) ;
#5 = CC_DESIGN_SECURITY_CLASSIFICATION ( #71, ( #60 ) ) ;
#6 = APPLICATION_PROTOCOL_DEFINITION ( 'international standard', 'config_control_design', 1994, #48 ) ;
#7 = APPLICATION_CONTEXT ( 'configuration controlled 3d designs of mechanical parts and assemblies' ) ;
#8 = LOCAL_TIME ( 17, 17, 47.00000000000000000, #92 ) ;
#9 = PERSON_AND_ORGANIZATION ( #134, #36 ) ;
#10 = VECTOR ( 'NONE', #125, 1000.000000000000000 ) ;
#11 =( LENGTH_UNIT ( ) NAMED_UNIT ( * ) SI_UNIT ( .MILLI., .METRE. ) );
#12 = CC_DESIGN_SECURITY_CLASSIFICATION ( #104, ( #156 ) ) ;
#13 = EDGE_LOOP ( 'NONE', ( #249, #72, #153, #83 ) ) ;
#14 = DIRECTION ( 'NONE',  ( 0.0000000000000000000, 0.0000000000000000000, 1.000000000000000000 ) ) ;
#15 = PERSON_AND_ORGANIZATION ( #134, #36 ) ;
#16 = EDGE_CURVE ( 'NONE', #41, #96, #253, .T. ) ;
#17 = CARTESIAN_POINT ( 'NONE',  ( 12.50000000000000000, 24.99999999999998900, 3.000000000000000400 ) ) ;
#18 = DATE_AND_TIME ( #232, #252 ) ;
#19 = PERSON_AND_ORGANIZATION_ROLE ( 'design_supplier' ) ;
#20 = CC_DESIGN_PERSON_AND_ORGANIZATION_ASSIGNMENT ( #223, #30, ( #178 ) ) ;
#21 = AXIS2_PLACEMENT_3D ( 'NONE', #78, #56, #79 ) ;
#22 = PERSON_AND_ORGANIZATION_ROLE ( 'creator' ) ;
#23 = VERTEX_POINT ( 'NONE', #39 ) ;
#24 = PRODUCT_RELATED_PRODUCT_CATEGORY ( 'detail', '', ( #178 ) ) ;
#25 = COORDINATED_UNIVERSAL_TIME_OFFSET ( 8, 0, .AHEAD. ) ;
#26 = VERTEX_POINT ( 'NONE', #177 ) ;
#27 = EDGE_CURVE ( 'NONE', #41, #26, #211, .T. ) ;
#28 = ORIENTED_EDGE ( 'NONE', *, *, #250, .F. ) ;
#29 = APPLICATION_PROTOCOL_DEFINITION ( 'international standard', 'config_control_design', 1994, #237 ) ;
#30 = PERSON_AND_ORGANIZATION_ROLE ( 'design_owner' ) ;
#31 = AXIS2_PLACEMENT_3D ( 'NONE', #144, #82, #159 ) ;
#32 = APPROVAL_ROLE ( '' ) ;
#33 = EDGE_LOOP ( 'NONE', ( #28, #186 ) ) ;
#34 = PERSON_AND_ORGANIZATION ( #134, #36 ) ;
#35 = APPROVAL ( #168, 'Î´Ö¸¶¨' ) ;
#36 = ORGANIZATION ( 'Î´Ö¸¶¨', 'Î´Ö¸¶¨', '' ) ;
#37 = APPROVAL_DATE_TIME ( #123, #169 ) ;
#38 = CARTESIAN_POINT ( 'NONE',  ( 12.49999999999999600, 1.530808498934191100E-015, 3.000000000000000000 ) ) ;
#39 = CARTESIAN_POINT ( 'NONE',  ( -12.49999999999999600, 0.0000000000000000000, 0.0000000000000000000 ) ) ;
#40 = DATE_AND_TIME ( #236, #55 ) ;
#41 = VERTEX_POINT ( 'NONE', #195 ) ;
#42 = CC_DESIGN_APPROVAL ( #169, ( #60 ) ) ;
#43 = APPROVAL_DATE_TIME ( #18, #147 ) ;
#44 = PERSON_AND_ORGANIZATION_ROLE ( 'creator' ) ;
#45 =( GEOMETRIC_REPRESENTATION_CONTEXT ( 3 ) GLOBAL_UNCERTAINTY_ASSIGNED_CONTEXT ( ( #139 ) ) GLOBAL_UNIT_ASSIGNED_CONTEXT ( ( #11, #100, #225 ) ) REPRESENTATION_CONTEXT ( 'NONE', 'WORKASPACE' ) );
#46 = APPROVAL_ROLE ( '' ) ;
#47 = PERSON_AND_ORGANIZATION_ROLE ( 'creator' ) ;
#48 = APPLICATION_CONTEXT ( 'configuration controlled 3d designs of mechanical parts and assemblies' ) ;
#49 = APPROVAL_STATUS ( 'not_yet_approved' ) ;
#50 = ORIENTED_EDGE ( 'NONE', *, *, #203, .T. ) ;
#51 = CIRCLE ( 'NONE', #81, 12.49999999999999600 ) ;
#52 = PERSON_AND_ORGANIZATION_ROLE ( 'creator' ) ;
#53 = DIRECTION ( 'NONE',  ( 1.000000000000000000, 0.0000000000000000000, 0.0000000000000000000 ) ) ;
#54 = PLANE ( 'NONE',  #21 ) ;
#55 = LOCAL_TIME ( 17, 17, 47.00000000000000000, #140 ) ;
#56 = DIRECTION ( 'NONE',  ( -0.01832493139610280200, 0.0000000000000000000, -0.9998320843468308000 ) ) ;
#57 = PRODUCT_DEFINITION_SHAPE ( 'NONE', 'NONE',  #118 ) ;
#58 = CARTESIAN_POINT ( 'NONE',  ( 0.0000000000000000000, 0.0000000000000000000, 0.0000000000000000000 ) ) ;
#59 = APPROVAL_PERSON_ORGANIZATION ( #126, #201, #107 ) ;
#60 = PRODUCT_DEFINITION_FORMATION_WITH_SPECIFIED_SOURCE ( 'ÈÎºÎ', '', #178, .NOT_KNOWN. ) ;
#61 = APPROVAL_STATUS ( 'not_yet_approved' ) ;
#62 = ORIENTED_EDGE ( 'NONE', *, *, #16, .T. ) ;
#63 = CC_DESIGN_PERSON_AND_ORGANIZATION_ASSIGNMENT ( #9, #202, ( #246 ) ) ;
#64 = PERSON_AND_ORGANIZATION ( #134, #36 ) ;
#65 = COORDINATED_UNIVERSAL_TIME_OFFSET ( 8, 0, .AHEAD. ) ;
#66 = ORIENTED_EDGE ( 'NONE', *, *, #103, .F. ) ;
#67 = APPROVAL_PERSON_ORGANIZATION ( #148, #84, #130 ) ;
#68 = DATE_AND_TIME ( #158, #8 ) ;
#69 = PRODUCT_DEFINITION_SHAPE ( 'NONE', 'NONE',  #75 ) ;
#70 = CIRCLE ( 'NONE', #163, 12.49999999999999600 ) ;
#71 = SECURITY_CLASSIFICATION ( '', '', #204 ) ;
#72 = ORIENTED_EDGE ( 'NONE', *, *, #27, .T. ) ;
#73 = APPROVAL_ROLE ( '' ) ;
#74 = DIRECTION ( 'NONE',  ( 0.0000000000000000000, 0.0000000000000000000, 1.000000000000000000 ) ) ;
#75 = PRODUCT_DEFINITION ( 'Î´Öª', '', #156, #152 ) ;
#76 = CARTESIAN_POINT ( 'NONE',  ( -12.50000000000000000, 24.99999999999998900, 3.458200223892447900 ) ) ;
#77 = LOCAL_TIME ( 17, 17, 47.00000000000000000, #25 ) ;
#78 = CARTESIAN_POINT ( 'NONE',  ( 12.49999999999999600, -25.00000000000000000, 3.000000000000000000 ) ) ;
#79 = DIRECTION ( 'NONE',  ( -0.9998320843468306900, 0.0000000000000000000, 0.01832493139610279900 ) ) ;
#80 = CARTESIAN_POINT ( 'NONE',  ( 0.0000000000000000000, 0.0000000000000000000, 0.0000000000000000000 ) ) ;
#81 = AXIS2_PLACEMENT_3D ( 'NONE', #135, #205, #244 ) ;
#82 = DIRECTION ( 'NONE',  ( -0.0000000000000000000, -0.0000000000000000000, -1.000000000000000000 ) ) ;
#83 = ORIENTED_EDGE ( 'NONE', *, *, #250, .T. ) ;
#84 = APPROVAL ( #61, 'Î´Ö¸¶¨' ) ;
#85 = ADVANCED_FACE ( 'NONE', ( #166 ), #54, .F. ) ;
#86 = PERSON_AND_ORGANIZATION ( #134, #36 ) ;
#87 = APPROVAL_DATE_TIME ( #206, #84 ) ;
#88 = CC_DESIGN_PERSON_AND_ORGANIZATION_ASSIGNMENT ( #171, #98, ( #71 ) ) ;
#89 = DATE_AND_TIME ( #115, #77 ) ;
#90 = ADVANCED_BREP_SHAPE_REPRESENTATION ( '373528', ( #182, #216 ), #45 ) ;
#91 = FACE_OUTER_BOUND ( 'NONE', #13, .T. ) ;
#92 = COORDINATED_UNIVERSAL_TIME_OFFSET ( 8, 0, .AHEAD. ) ;
#93 = CC_DESIGN_APPROVAL ( #147, ( #75 ) ) ;
#94 = COORDINATED_UNIVERSAL_TIME_OFFSET ( 8, 0, .AHEAD. ) ;
#95 = AXIS2_PLACEMENT_3D ( 'NONE', #58, #102, #231 ) ;
#96 = VERTEX_POINT ( 'NONE', #248 ) ;
#97 = PERSON_AND_ORGANIZATION ( #134, #36 ) ;
#98 = PERSON_AND_ORGANIZATION_ROLE ( 'classification_officer' ) ;
#99 = CALENDAR_DATE ( 2019, 24, 7 ) ;
#100 =( NAMED_UNIT ( * ) PLANE_ANGLE_UNIT ( ) SI_UNIT ( $, .RADIAN. ) );
#101 = CARTESIAN_POINT ( 'NONE',  ( 12.49999999999999600, 1.530808498934191100E-015, 3.000000000000000000 ) ) ;
#102 = DIRECTION ( 'NONE',  ( 0.0000000000000000000, 0.0000000000000000000, 1.000000000000000000 ) ) ;
#103 = EDGE_CURVE ( 'NONE', #26, #23, #179, .T. ) ;
#104 = SECURITY_CLASSIFICATION ( '', '', #175 ) ;
#105 = CARTESIAN_POINT ( 'NONE',  ( -12.49999999999999500, -24.99999999999998900, 3.458200223892447900 ) ) ;
#106 = EDGE_LOOP ( 'NONE', ( #167, #62, #50, #66 ) ) ;
#107 = APPROVAL_ROLE ( '' ) ;
#108 = COORDINATED_UNIVERSAL_TIME_OFFSET ( 8, 0, .AHEAD. ) ;
#109 = CC_DESIGN_PERSON_AND_ORGANIZATION_ASSIGNMENT ( #86, #119, ( #60 ) ) ;
#110 = CC_DESIGN_PERSON_AND_ORGANIZATION_ASSIGNMENT ( #226, #44, ( #118 ) ) ;
#111 = COORDINATED_UNIVERSAL_TIME_OFFSET ( 8, 0, .AHEAD. ) ;
#112 = APPROVAL_DATE_TIME ( #165, #201 ) ;
#113 = CC_DESIGN_APPROVAL ( #84, ( #104 ) ) ;
#114 = MECHANICAL_CONTEXT ( 'NONE', #221, 'mechanical' ) ;
#115 = CALENDAR_DATE ( 2019, 24, 7 ) ;
#116 = FACE_OUTER_BOUND ( 'NONE', #106, .T. ) ;
#117 = DATE_TIME_ROLE ( 'creation_date' ) ;
#118 = PRODUCT_DEFINITION ( 'Î´Öª', '', #60, #142 ) ;
#119 = PERSON_AND_ORGANIZATION_ROLE ( 'design_supplier' ) ;
#120 = CC_DESIGN_PERSON_AND_ORGANIZATION_ASSIGNMENT ( #198, #47, ( #75 ) ) ;
#121 =( BOUNDED_CURVE ( )  B_SPLINE_CURVE ( 3, ( #208, #76, #17, #38 ),
 .UNSPECIFIED., .F., .T. ) 
 B_SPLINE_CURVE_WITH_KNOTS ( ( 4, 4 ),
 ( 3.141592653589793100, 6.283185307179586200 ),
 .UNSPECIFIED. ) 
 CURVE ( )  GEOMETRIC_REPRESENTATION_ITEM ( )  RATIONAL_B_SPLINE_CURVE ( ( 1.000000000000000000, 0.3333333333333333700, 0.3333333333333333700, 1.000000000000000000 ) ) 
 REPRESENTATION_ITEM ( '' )  );
#122 = SHAPE_DEFINITION_REPRESENTATION ( #69, #90 ) ;
#123 = DATE_AND_TIME ( #99, #207 ) ;
#124 = ADVANCED_FACE ( 'NONE', ( #145 ), #229, .F. ) ;
#125 = DIRECTION ( 'NONE',  ( -0.0000000000000000000, -0.0000000000000000000, -1.000000000000000000 ) ) ;
#126 = PERSON_AND_ORGANIZATION ( #134, #36 ) ;
#127 = CARTESIAN_POINT ( 'NONE',  ( 0.0000000000000000000, 0.0000000000000000000, 10.00000000000000000 ) ) ;
#128 = ORIENTED_EDGE ( 'NONE', *, *, #2, .F. ) ;
#129 = LOCAL_TIME ( 17, 17, 47.00000000000000000, #94 ) ;
#130 = APPROVAL_ROLE ( '' ) ;
#131 = APPLICATION_PROTOCOL_DEFINITION ( 'international standard', 'config_control_design', 1994, #221 ) ;
#132 = CC_DESIGN_DATE_AND_TIME_ASSIGNMENT ( #172, #189, ( #75 ) ) ;
#133 = COORDINATED_UNIVERSAL_TIME_OFFSET ( 8, 0, .AHEAD. ) ;
#134 = PERSON ( 'Î´Ö¸¶¨', 'Î´Ö¸¶¨', 'Î´Ö¸¶¨', ('Î´Ö¸¶¨'), ('Î´Ö¸¶¨'), ('Î´Ö¸¶¨') ) ;
#135 = CARTESIAN_POINT ( 'NONE',  ( 0.0000000000000000000, 0.0000000000000000000, 0.0000000000000000000 ) ) ;
#136 = CLOSED_SHELL ( 'NONE', ( #143, #181, #124, #85 ) ) ;
#137 = CC_DESIGN_PERSON_AND_ORGANIZATION_ASSIGNMENT ( #97, #22, ( #156 ) ) ;
#138 = COORDINATED_UNIVERSAL_TIME_OFFSET ( 8, 0, .AHEAD. ) ;
#139 = UNCERTAINTY_MEASURE_WITH_UNIT (LENGTH_MEASURE( 1.000000000000000100E-005 ), #11, 'distance_accuracy_value', 'NONE');
#140 = COORDINATED_UNIVERSAL_TIME_OFFSET ( 8, 0, .AHEAD. ) ;
#141 = CARTESIAN_POINT ( 'NONE',  ( 12.49999999999999600, 1.530808498934191100E-015, 10.00000000000000000 ) ) ;
#142 = DESIGN_CONTEXT ( 'detailed design', #48, 'design' ) ;
#143 = ADVANCED_FACE ( 'NONE', ( #116 ), #213, .T. ) ;
#144 = CARTESIAN_POINT ( 'NONE',  ( 0.0000000000000000000, 0.0000000000000000000, 10.00000000000000000 ) ) ;
#145 = FACE_OUTER_BOUND ( 'NONE', #33, .T. ) ;
#146 = APPROVAL_DATE_TIME ( #40, #35 ) ;
#147 = APPROVAL ( #151, 'Î´Ö¸¶¨' ) ;
#148 = PERSON_AND_ORGANIZATION ( #134, #36 ) ;
#149 = COORDINATED_UNIVERSAL_TIME_OFFSET ( 8, 0, .AHEAD. ) ;
#150 = PRODUCT_RELATED_PRODUCT_CATEGORY ( 'detail', '', ( #246 ) ) ;
#151 = APPROVAL_STATUS ( 'not_yet_approved' ) ;
#152 = DESIGN_CONTEXT ( 'detailed design', #237, 'design' ) ;
#153 = ORIENTED_EDGE ( 'NONE', *, *, #103, .T. ) ;
#154 = PERSON_AND_ORGANIZATION ( #134, #36 ) ;
#155 = CARTESIAN_POINT ( 'NONE',  ( 0.0000000000000000000, 0.0000000000000000000, 0.0000000000000000000 ) ) ;
#156 = PRODUCT_DEFINITION_FORMATION_WITH_SPECIFIED_SOURCE ( 'ÈÎºÎ', '', #246, .NOT_KNOWN. ) ;
#157 = CALENDAR_DATE ( 2019, 24, 7 ) ;
#158 = CALENDAR_DATE ( 2019, 24, 7 ) ;
#159 = DIRECTION ( 'NONE',  ( -1.000000000000000000, 0.0000000000000000000, 0.0000000000000000000 ) ) ;
#160 = DIRECTION ( 'NONE',  ( -0.0000000000000000000, -0.0000000000000000000, -1.000000000000000000 ) ) ;
#161 = CYLINDRICAL_SURFACE ( 'NONE', #31, 12.49999999999999600 ) ;
#162 = LOCAL_TIME ( 17, 17, 47.00000000000000000, #111 ) ;
#163 = AXIS2_PLACEMENT_3D ( 'NONE', #80, #74, #53 ) ;
#164 = CC_DESIGN_PERSON_AND_ORGANIZATION_ASSIGNMENT ( #154, #235, ( #104 ) ) ;
#165 = DATE_AND_TIME ( #3, #209 ) ;
#166 = FACE_OUTER_BOUND ( 'NONE', #199, .T. ) ;
#167 = ORIENTED_EDGE ( 'NONE', *, *, #2, .T. ) ;
#168 = APPROVAL_STATUS ( 'not_yet_approved' ) ;
#169 = APPROVAL ( #243, 'Î´Ö¸¶¨' ) ;
#170 = APPROVAL_ROLE ( '' ) ;
#171 = PERSON_AND_ORGANIZATION ( #134, #36 ) ;
#172 = DATE_AND_TIME ( #219, #187 ) ;
#173 = VECTOR ( 'NONE', #228, 1000.000000000000000 ) ;
#174 = DIRECTION ( 'NONE',  ( 1.000000000000000000, 0.0000000000000000000, 0.0000000000000000000 ) ) ;
#175 = SECURITY_CLASSIFICATION_LEVEL ( 'unclassified' ) ;
#176 = APPROVAL_PERSON_ORGANIZATION ( #15, #245, #32 ) ;
#177 = CARTESIAN_POINT ( 'NONE',  ( -12.49999999999999600, 0.0000000000000000000, 3.458200223892447000 ) ) ;
#178 = PRODUCT ( '373528', '373528', '', ( #114 ) ) ;
#179 = LINE ( 'NONE', #197, #10 ) ;
#180 = DIRECTION ( 'NONE',  ( -1.000000000000000000, 0.0000000000000000000, 0.0000000000000000000 ) ) ;
#181 = ADVANCED_FACE ( 'NONE', ( #91 ), #161, .T. ) ;
#182 = MANIFOLD_SOLID_BREP ( 'ÇÐ³ý-À­Éì1', #136 ) ;
#183 = DATE_TIME_ROLE ( 'classification_date' ) ;
#184 = DATE_AND_TIME ( #222, #162 ) ;
#185 = CC_DESIGN_DATE_AND_TIME_ASSIGNMENT ( #184, #224, ( #71 ) ) ;
#186 = ORIENTED_EDGE ( 'NONE', *, *, #203, .F. ) ;
#187 = LOCAL_TIME ( 17, 17, 47.00000000000000000, #138 ) ;
#188 = APPROVAL_PERSON_ORGANIZATION ( #64, #35, #46 ) ;
#189 = DATE_TIME_ROLE ( 'creation_date' ) ;
#190 = APPLICATION_PROTOCOL_DEFINITION ( 'international standard', 'config_control_design', 1994, #7 ) ;
#191 = DIRECTION ( 'NONE',  ( 0.0000000000000000000, 0.0000000000000000000, 1.000000000000000000 ) ) ;
#192 = APPROVAL_DATE_TIME ( #89, #245 ) ;
#193 = DIRECTION ( 'NONE',  ( 1.000000000000000000, 0.0000000000000000000, 0.0000000000000000000 ) ) ;
#194 = CC_DESIGN_DATE_AND_TIME_ASSIGNMENT ( #68, #117, ( #118 ) ) ;
#195 = CARTESIAN_POINT ( 'NONE',  ( 12.49999999999999600, 1.530808498934191100E-015, 3.000000000000000000 ) ) ;
#196 = CARTESIAN_POINT ( 'NONE',  ( 12.50000000000000000, -24.99999999999998900, 3.000000000000000400 ) ) ;
#197 = CARTESIAN_POINT ( 'NONE',  ( -12.49999999999999600, 0.0000000000000000000, 10.00000000000000000 ) ) ;
#198 = PERSON_AND_ORGANIZATION ( #134, #36 ) ;
#199 = EDGE_LOOP ( 'NONE', ( #128, #214 ) ) ;
#200 = PERSON_AND_ORGANIZATION ( #134, #36 ) ;
#201 = APPROVAL ( #212, 'Î´Ö¸¶¨' ) ;
#202 = PERSON_AND_ORGANIZATION_ROLE ( 'design_owner' ) ;
#203 = EDGE_CURVE ( 'NONE', #96, #23, #70, .T. ) ;
#204 = SECURITY_CLASSIFICATION_LEVEL ( 'unclassified' ) ;
#205 = DIRECTION ( 'NONE',  ( 0.0000000000000000000, 0.0000000000000000000, 1.000000000000000000 ) ) ;
#206 = DATE_AND_TIME ( #247, #129 ) ;
#207 = LOCAL_TIME ( 17, 17, 47.00000000000000000, #133 ) ;
#208 = CARTESIAN_POINT ( 'NONE',  ( -12.49999999999999600, 0.0000000000000000000, 3.458200223892447000 ) ) ;
#209 = LOCAL_TIME ( 17, 17, 47.00000000000000000, #65 ) ;
#210 = CC_DESIGN_DATE_AND_TIME_ASSIGNMENT ( #215, #183, ( #104 ) ) ;
#211 =( BOUNDED_CURVE ( )  B_SPLINE_CURVE ( 3, ( #101, #196, #105, #230 ),
 .UNSPECIFIED., .F., .T. ) 
 B_SPLINE_CURVE_WITH_KNOTS ( ( 4, 4 ),
 ( 0.0000000000000000000, 3.141592653589793100 ),
 .UNSPECIFIED. ) 
 CURVE ( )  GEOMETRIC_REPRESENTATION_ITEM ( )  RATIONAL_B_SPLINE_CURVE ( ( 1.000000000000000000, 0.3333333333333333700, 0.3333333333333333700, 1.000000000000000000 ) ) 
 REPRESENTATION_ITEM ( '' )  );
#212 = APPROVAL_STATUS ( 'not_yet_approved' ) ;
#213 = CYLINDRICAL_SURFACE ( 'NONE', #218, 12.49999999999999600 ) ;
#214 = ORIENTED_EDGE ( 'NONE', *, *, #27, .F. ) ;
#215 = DATE_AND_TIME ( #157, #240 ) ;
#216 = AXIS2_PLACEMENT_3D ( 'NONE', #155, #14, #174 ) ;
#217 = APPROVAL_PERSON_ORGANIZATION ( #1, #169, #73 ) ;
#218 = AXIS2_PLACEMENT_3D ( 'NONE', #127, #160, #180 ) ;
#219 = CALENDAR_DATE ( 2019, 24, 7 ) ;
#220 = CC_DESIGN_APPROVAL ( #245, ( #71 ) ) ;
#221 = APPLICATION_CONTEXT ( 'configuration controlled 3d designs of mechanical parts and assemblies' ) ;
#222 = CALENDAR_DATE ( 2019, 24, 7 ) ;
#223 = PERSON_AND_ORGANIZATION ( #134, #36 ) ;
#224 = DATE_TIME_ROLE ( 'classification_date' ) ;
#225 =( NAMED_UNIT ( * ) SI_UNIT ( $, .STERADIAN. ) SOLID_ANGLE_UNIT ( ) );
#226 = PERSON_AND_ORGANIZATION ( #134, #36 ) ;
#227 = CC_DESIGN_APPROVAL ( #201, ( #156 ) ) ;
#228 = DIRECTION ( 'NONE',  ( -0.0000000000000000000, -0.0000000000000000000, -1.000000000000000000 ) ) ;
#229 = PLANE ( 'NONE',  #95 ) ;
#230 = CARTESIAN_POINT ( 'NONE',  ( -12.49999999999999600, 0.0000000000000000000, 3.458200223892447000 ) ) ;
#231 = DIRECTION ( 'NONE',  ( 1.000000000000000000, 0.0000000000000000000, -0.0000000000000000000 ) ) ;
#232 = CALENDAR_DATE ( 2019, 24, 7 ) ;
#233 = CC_DESIGN_APPROVAL ( #35, ( #118 ) ) ;
#234 = PERSON_AND_ORGANIZATION ( #134, #36 ) ;
#235 = PERSON_AND_ORGANIZATION_ROLE ( 'classification_officer' ) ;
#236 = CALENDAR_DATE ( 2019, 24, 7 ) ;
#237 = APPLICATION_CONTEXT ( 'configuration controlled 3d designs of mechanical parts and assemblies' ) ;
#238 = MECHANICAL_CONTEXT ( 'NONE', #7, 'mechanical' ) ;
#239 = AXIS2_PLACEMENT_3D ( 'NONE', #241, #191, #193 ) ;
#240 = LOCAL_TIME ( 17, 17, 47.00000000000000000, #108 ) ;
#241 = CARTESIAN_POINT ( 'NONE',  ( 0.0000000000000000000, 0.0000000000000000000, 0.0000000000000000000 ) ) ;
#242 = APPROVAL_PERSON_ORGANIZATION ( #34, #147, #170 ) ;
#243 = APPROVAL_STATUS ( 'not_yet_approved' ) ;
#244 = DIRECTION ( 'NONE',  ( 1.000000000000000000, 0.0000000000000000000, 0.0000000000000000000 ) ) ;
#245 = APPROVAL ( #49, 'Î´Ö¸¶¨' ) ;
#246 = PRODUCT ( '373528', '373528', '', ( #238 ) ) ;
#247 = CALENDAR_DATE ( 2019, 24, 7 ) ;
#248 = CARTESIAN_POINT ( 'NONE',  ( 12.49999999999999600, 1.530808498934191100E-015, 0.0000000000000000000 ) ) ;
#249 = ORIENTED_EDGE ( 'NONE', *, *, #16, .F. ) ;
#250 = EDGE_CURVE ( 'NONE', #23, #96, #51, .T. ) ;
#251 = CC_DESIGN_PERSON_AND_ORGANIZATION_ASSIGNMENT ( #200, #19, ( #156 ) ) ;
#252 = LOCAL_TIME ( 17, 17, 47.00000000000000000, #149 ) ;
#253 = LINE ( 'NONE', #141, #173 ) ;
ENDSEC;
END-ISO-10303-21;
