ISO-10303-21;
HEADER;
FILE_DESCRIPTION (( 'STEP AP214' ),
    '1' );
FILE_NAME ('180002.STEP',
    '2019-07-09T04:01:13',
    ( 'user' ),
    ( 'Î¢ÈíÖÐ¹ú' ),
    'SwSTEP 2.0',
    'SolidWorks 2016',
    '' );
FILE_SCHEMA (( 'AUTOMOTIVE_DESIGN' ));
ENDSEC;

DATA;
#1 = CARTESIAN_POINT ( 'NONE',  ( -6.250000000000000000, 0.0000000000000000000, 0.0000000000000000000 ) ) ;
#2 = ORIENTED_EDGE ( 'NONE', *, *, #62, .T. ) ;
#3 = FACE_OUTER_BOUND ( 'NONE', #38, .T. ) ;
#4 = ADVANCED_BREP_SHAPE_REPRESENTATION ( '180002', ( #11, #111 ), #47 ) ;
#5 = CARTESIAN_POINT ( 'NONE',  ( -6.250000000000000000, 0.0000000000000000000, 2.000000000000000000 ) ) ;
#6 = DIRECTION ( 'NONE',  ( 1.000000000000000000, 0.0000000000000000000, -0.0000000000000000000 ) ) ;
#7 = CARTESIAN_POINT ( 'NONE',  ( 0.0000000000000000000, 0.0000000000000000000, 0.0000000000000000000 ) ) ;
#8 = CIRCLE ( 'NONE', #135, 6.250000000000000000 ) ;
#9 = DIRECTION ( 'NONE',  ( -1.000000000000000000, 0.0000000000000000000, 0.0000000000000000000 ) ) ;
#10 = EDGE_CURVE ( 'NONE', #12, #66, #95, .T. ) ;
#11 = MANIFOLD_SOLID_BREP ( 'Í¹Ì¨-À­Éì1', #137 ) ;
#12 = VERTEX_POINT ( 'NONE', #5 ) ;
#13 = PRESENTATION_STYLE_ASSIGNMENT (( #136 ) ) ;
#14 = AXIS2_PLACEMENT_3D ( 'NONE', #24, #45, #101 ) ;
#15 = DIRECTION ( 'NONE',  ( -0.0000000000000000000, -0.0000000000000000000, -1.000000000000000000 ) ) ;
#16 =( NAMED_UNIT ( * ) PLANE_ANGLE_UNIT ( ) SI_UNIT ( $, .RADIAN. ) );
#17 = PRODUCT_DEFINITION_SHAPE ( 'NONE', 'NONE',  #120 ) ;
#18 = ORIENTED_EDGE ( 'NONE', *, *, #10, .T. ) ;
#19 = STYLED_ITEM ( 'NONE', ( #65 ), #11 ) ;
#20 = CARTESIAN_POINT ( 'NONE',  ( 0.0000000000000000000, 0.0000000000000000000, 2.000000000000000000 ) ) ;
#21 = AXIS2_PLACEMENT_3D ( 'NONE', #129, #30, #6 ) ;
#22 = VERTEX_POINT ( 'NONE', #99 ) ;
#23 = FACE_OUTER_BOUND ( 'NONE', #34, .T. ) ;
#24 = CARTESIAN_POINT ( 'NONE',  ( 0.0000000000000000000, 0.0000000000000000000, 2.000000000000000000 ) ) ;
#25 = AXIS2_PLACEMENT_3D ( 'NONE', #7, #114, #110 ) ;
#26 = ORIENTED_EDGE ( 'NONE', *, *, #103, .T. ) ;
#27 = FACE_OUTER_BOUND ( 'NONE', #98, .T. ) ;
#28 = DIRECTION ( 'NONE',  ( -0.0000000000000000000, -0.0000000000000000000, -1.000000000000000000 ) ) ;
#29 = UNCERTAINTY_MEASURE_WITH_UNIT (LENGTH_MEASURE( 1.000000000000000100E-005 ), #68, 'distance_accuracy_value', 'NONE');
#30 = DIRECTION ( 'NONE',  ( 0.0000000000000000000, 0.0000000000000000000, 1.000000000000000000 ) ) ;
#31 = DIRECTION ( 'NONE',  ( -0.0000000000000000000, -0.0000000000000000000, -1.000000000000000000 ) ) ;
#32 = FACE_OUTER_BOUND ( 'NONE', #84, .T. ) ;
#33 = AXIS2_PLACEMENT_3D ( 'NONE', #36, #102, #88 ) ;
#34 = EDGE_LOOP ( 'NONE', ( #75, #26, #86, #132 ) ) ;
#35 = AXIS2_PLACEMENT_3D ( 'NONE', #20, #139, #9 ) ;
#36 = CARTESIAN_POINT ( 'NONE',  ( 0.0000000000000000000, 0.0000000000000000000, 0.0000000000000000000 ) ) ;
#37 = ADVANCED_FACE ( 'NONE', ( #3 ), #57, .T. ) ;
#38 = EDGE_LOOP ( 'NONE', ( #43, #118, #18, #56 ) ) ;
#39 = DIRECTION ( 'NONE',  ( 1.000000000000000000, 0.0000000000000000000, 0.0000000000000000000 ) ) ;
#40 = SURFACE_STYLE_FILL_AREA ( #126 ) ;
#41 = AXIS2_PLACEMENT_3D ( 'NONE', #128, #82, #130 ) ;
#42 = APPLICATION_PROTOCOL_DEFINITION ( 'draft international standard', 'automotive_design', 1998, #93 ) ;
#43 = ORIENTED_EDGE ( 'NONE', *, *, #103, .F. ) ;
#44 = ORIENTED_EDGE ( 'NONE', *, *, #117, .T. ) ;
#45 = DIRECTION ( 'NONE',  ( 0.0000000000000000000, 0.0000000000000000000, 1.000000000000000000 ) ) ;
#46 = FILL_AREA_STYLE ('',( #53 ) ) ;
#47 =( GEOMETRIC_REPRESENTATION_CONTEXT ( 3 ) GLOBAL_UNCERTAINTY_ASSIGNED_CONTEXT ( ( #119 ) ) GLOBAL_UNIT_ASSIGNED_CONTEXT ( ( #104, #131, #115 ) ) REPRESENTATION_CONTEXT ( 'NONE', 'WORKASPACE' ) );
#48 = CARTESIAN_POINT ( 'NONE',  ( 0.0000000000000000000, 0.0000000000000000000, 0.0000000000000000000 ) ) ;
#49 = PRODUCT_CONTEXT ( 'NONE', #64, 'mechanical' ) ;
#50 = ORIENTED_EDGE ( 'NONE', *, *, #67, .F. ) ;
#51 = CYLINDRICAL_SURFACE ( 'NONE', #63, 6.250000000000000000 ) ;
#52 = CARTESIAN_POINT ( 'NONE',  ( 0.0000000000000000000, 0.0000000000000000000, 2.000000000000000000 ) ) ;
#53 = FILL_AREA_STYLE_COLOUR ( '', #123 ) ;
#54 = VECTOR ( 'NONE', #31, 1000.000000000000000 ) ;
#55 = STYLED_ITEM ( 'NONE', ( #13 ), #4 ) ;
#56 = ORIENTED_EDGE ( 'NONE', *, *, #96, .T. ) ;
#57 = CYLINDRICAL_SURFACE ( 'NONE', #35, 6.250000000000000000 ) ;
#58 = PLANE ( 'NONE',  #21 ) ;
#59 =( NAMED_UNIT ( * ) SI_UNIT ( $, .STERADIAN. ) SOLID_ANGLE_UNIT ( ) );
#60 = DIRECTION ( 'NONE',  ( 0.0000000000000000000, 0.0000000000000000000, 1.000000000000000000 ) ) ;
#61 = COLOUR_RGB ( '',1.000000000000000000, 1.000000000000000000, 1.000000000000000000 ) ;
#62 = EDGE_CURVE ( 'NONE', #12, #79, #112, .T. ) ;
#63 = AXIS2_PLACEMENT_3D ( 'NONE', #52, #28, #74 ) ;
#64 = APPLICATION_CONTEXT ( 'automotive_design' ) ;
#65 = PRESENTATION_STYLE_ASSIGNMENT (( #134 ) ) ;
#66 = VERTEX_POINT ( 'NONE', #1 ) ;
#67 = EDGE_CURVE ( 'NONE', #22, #66, #8, .T. ) ;
#68 =( LENGTH_UNIT ( ) NAMED_UNIT ( * ) SI_UNIT ( .MILLI., .METRE. ) );
#69 = UNCERTAINTY_MEASURE_WITH_UNIT (LENGTH_MEASURE( 1.000000000000000100E-005 ), #70, 'distance_accuracy_value', 'NONE');
#70 =( LENGTH_UNIT ( ) NAMED_UNIT ( * ) SI_UNIT ( .MILLI., .METRE. ) );
#71 = FILL_AREA_STYLE_COLOUR ( '', #61 ) ;
#72 = DIRECTION ( 'NONE',  ( 1.000000000000000000, 0.0000000000000000000, 0.0000000000000000000 ) ) ;
#73 = APPLICATION_PROTOCOL_DEFINITION ( 'draft international standard', 'automotive_design', 1998, #64 ) ;
#74 = DIRECTION ( 'NONE',  ( -1.000000000000000000, 0.0000000000000000000, 0.0000000000000000000 ) ) ;
#75 = ORIENTED_EDGE ( 'NONE', *, *, #117, .F. ) ;
#76 = PRESENTATION_LAYER_ASSIGNMENT (  '', '', ( #55 ) ) ;
#77 = SURFACE_STYLE_FILL_AREA ( #46 ) ;
#78 =( NAMED_UNIT ( * ) PLANE_ANGLE_UNIT ( ) SI_UNIT ( $, .RADIAN. ) );
#79 = VERTEX_POINT ( 'NONE', #113 ) ;
#80 = LINE ( 'NONE', #107, #54 ) ;
#81 = ADVANCED_FACE ( 'NONE', ( #27 ), #58, .T. ) ;
#82 = DIRECTION ( 'NONE',  ( 0.0000000000000000000, 0.0000000000000000000, 1.000000000000000000 ) ) ;
#83 = MECHANICAL_DESIGN_GEOMETRIC_PRESENTATION_REPRESENTATION (  '', ( #55 ), #90 ) ;
#84 = EDGE_LOOP ( 'NONE', ( #105, #50 ) ) ;
#85 = CIRCLE ( 'NONE', #25, 6.250000000000000000 ) ;
#86 = ORIENTED_EDGE ( 'NONE', *, *, #67, .T. ) ;
#87 = PRESENTATION_LAYER_ASSIGNMENT (  '', '', ( #19 ) ) ;
#88 = DIRECTION ( 'NONE',  ( 1.000000000000000000, 0.0000000000000000000, -0.0000000000000000000 ) ) ;
#89 = DIRECTION ( 'NONE',  ( 0.0000000000000000000, 0.0000000000000000000, 1.000000000000000000 ) ) ;
#90 =( GEOMETRIC_REPRESENTATION_CONTEXT ( 3 ) GLOBAL_UNCERTAINTY_ASSIGNED_CONTEXT ( ( #69 ) ) GLOBAL_UNIT_ASSIGNED_CONTEXT ( ( #70, #16, #59 ) ) REPRESENTATION_CONTEXT ( 'NONE', 'WORKASPACE' ) );
#91 = ADVANCED_FACE ( 'NONE', ( #32 ), #92, .F. ) ;
#92 = PLANE ( 'NONE',  #33 ) ;
#93 = APPLICATION_CONTEXT ( 'automotive_design' ) ;
#94 = PRODUCT_DEFINITION_CONTEXT ( 'detailed design', #93, 'design' ) ;
#95 = LINE ( 'NONE', #124, #122 ) ;
#96 = EDGE_CURVE ( 'NONE', #66, #22, #85, .T. ) ;
#97 =( GEOMETRIC_REPRESENTATION_CONTEXT ( 3 ) GLOBAL_UNCERTAINTY_ASSIGNED_CONTEXT ( ( #29 ) ) GLOBAL_UNIT_ASSIGNED_CONTEXT ( ( #68, #78, #108 ) ) REPRESENTATION_CONTEXT ( 'NONE', 'WORKASPACE' ) );
#98 = EDGE_LOOP ( 'NONE', ( #2, #44 ) ) ;
#99 = CARTESIAN_POINT ( 'NONE',  ( 6.250000000000000000, 7.654042494670957600E-016, 0.0000000000000000000 ) ) ;
#100 = SURFACE_SIDE_STYLE ('',( #40 ) ) ;
#101 = DIRECTION ( 'NONE',  ( 1.000000000000000000, 0.0000000000000000000, 0.0000000000000000000 ) ) ;
#102 = DIRECTION ( 'NONE',  ( 0.0000000000000000000, 0.0000000000000000000, 1.000000000000000000 ) ) ;
#103 = EDGE_CURVE ( 'NONE', #79, #22, #80, .T. ) ;
#104 =( LENGTH_UNIT ( ) NAMED_UNIT ( * ) SI_UNIT ( .MILLI., .METRE. ) );
#105 = ORIENTED_EDGE ( 'NONE', *, *, #96, .F. ) ;
#106 = CIRCLE ( 'NONE', #41, 6.250000000000000000 ) ;
#107 = CARTESIAN_POINT ( 'NONE',  ( 6.250000000000000000, 7.654042494670957600E-016, 2.000000000000000000 ) ) ;
#108 =( NAMED_UNIT ( * ) SI_UNIT ( $, .STERADIAN. ) SOLID_ANGLE_UNIT ( ) );
#109 = CARTESIAN_POINT ( 'NONE',  ( 0.0000000000000000000, 0.0000000000000000000, 0.0000000000000000000 ) ) ;
#110 = DIRECTION ( 'NONE',  ( 1.000000000000000000, 0.0000000000000000000, 0.0000000000000000000 ) ) ;
#111 = AXIS2_PLACEMENT_3D ( 'NONE', #109, #60, #72 ) ;
#112 = CIRCLE ( 'NONE', #14, 6.250000000000000000 ) ;
#113 = CARTESIAN_POINT ( 'NONE',  ( 6.250000000000000000, 7.654042494670957600E-016, 2.000000000000000000 ) ) ;
#114 = DIRECTION ( 'NONE',  ( 0.0000000000000000000, 0.0000000000000000000, 1.000000000000000000 ) ) ;
#115 =( NAMED_UNIT ( * ) SI_UNIT ( $, .STERADIAN. ) SOLID_ANGLE_UNIT ( ) );
#116 = PRODUCT ( '180002', '180002', '', ( #49 ) ) ;
#117 = EDGE_CURVE ( 'NONE', #79, #12, #106, .T. ) ;
#118 = ORIENTED_EDGE ( 'NONE', *, *, #62, .F. ) ;
#119 = UNCERTAINTY_MEASURE_WITH_UNIT (LENGTH_MEASURE( 1.000000000000000100E-005 ), #104, 'distance_accuracy_value', 'NONE');
#120 = PRODUCT_DEFINITION ( 'Î´Öª', '', #127, #94 ) ;
#121 = MECHANICAL_DESIGN_GEOMETRIC_PRESENTATION_REPRESENTATION (  '', ( #19 ), #97 ) ;
#122 = VECTOR ( 'NONE', #15, 1000.000000000000000 ) ;
#123 = COLOUR_RGB ( '',1.000000000000000000, 1.000000000000000000, 1.000000000000000000 ) ;
#124 = CARTESIAN_POINT ( 'NONE',  ( -6.250000000000000000, 0.0000000000000000000, 2.000000000000000000 ) ) ;
#125 = SURFACE_SIDE_STYLE ('',( #77 ) ) ;
#126 = FILL_AREA_STYLE ('',( #71 ) ) ;
#127 = PRODUCT_DEFINITION_FORMATION_WITH_SPECIFIED_SOURCE ( 'ÈÎºÎ', '', #116, .NOT_KNOWN. ) ;
#128 = CARTESIAN_POINT ( 'NONE',  ( 0.0000000000000000000, 0.0000000000000000000, 2.000000000000000000 ) ) ;
#129 = CARTESIAN_POINT ( 'NONE',  ( 0.0000000000000000000, 0.0000000000000000000, 2.000000000000000000 ) ) ;
#130 = DIRECTION ( 'NONE',  ( 1.000000000000000000, 0.0000000000000000000, 0.0000000000000000000 ) ) ;
#131 =( NAMED_UNIT ( * ) PLANE_ANGLE_UNIT ( ) SI_UNIT ( $, .RADIAN. ) );
#132 = ORIENTED_EDGE ( 'NONE', *, *, #10, .F. ) ;
#133 = PRODUCT_RELATED_PRODUCT_CATEGORY ( 'part', '', ( #116 ) ) ;
#134 = SURFACE_STYLE_USAGE ( .BOTH. , #100 ) ;
#135 = AXIS2_PLACEMENT_3D ( 'NONE', #48, #89, #39 ) ;
#136 = SURFACE_STYLE_USAGE ( .BOTH. , #125 ) ;
#137 = CLOSED_SHELL ( 'NONE', ( #140, #37, #81, #91 ) ) ;
#138 = SHAPE_DEFINITION_REPRESENTATION ( #17, #4 ) ;
#139 = DIRECTION ( 'NONE',  ( -0.0000000000000000000, -0.0000000000000000000, -1.000000000000000000 ) ) ;
#140 = ADVANCED_FACE ( 'NONE', ( #23 ), #51, .T. ) ;
ENDSEC;
END-ISO-10303-21;
