ISO-10303-21;
HEADER;
FILE_DESCRIPTION (( 'STEP AP214' ),
    '1' );
FILE_NAME ('190061.STEP',
    '2019-07-16T03:32:21',
    ( 'user' ),
    ( 'Î¢ÈíÖÐ¹ú' ),
    'SwSTEP 2.0',
    'SolidWorks 2016',
    '' );
FILE_SCHEMA (( 'AUTOMOTIVE_DESIGN' ));
ENDSEC;

DATA;
#1 = ORIENTED_EDGE ( 'NONE', *, *, #17, .T. ) ;
#2 =( GEOMETRIC_REPRESENTATION_CONTEXT ( 3 ) GLOBAL_UNCERTAINTY_ASSIGNED_CONTEXT ( ( #101 ) ) GLOBAL_UNIT_ASSIGNED_CONTEXT ( ( #98, #116, #45 ) ) REPRESENTATION_CONTEXT ( 'NONE', 'WORKASPACE' ) );
#3 = ORIENTED_EDGE ( 'NONE', *, *, #70, .T. ) ;
#4 = DIRECTION ( 'NONE',  ( -1.000000000000000000, 0.0000000000000000000, 0.0000000000000000000 ) ) ;
#5 =( LENGTH_UNIT ( ) NAMED_UNIT ( * ) SI_UNIT ( .MILLI., .METRE. ) );
#6 = DIRECTION ( 'NONE',  ( 0.0000000000000000000, 0.0000000000000000000, 1.000000000000000000 ) ) ;
#7 = EDGE_LOOP ( 'NONE', ( #78, #115, #1, #58 ) ) ;
#8 = PRODUCT ( '190061', '190061', '', ( #103 ) ) ;
#9 = LINE ( 'NONE', #24, #67 ) ;
#10 = CYLINDRICAL_SURFACE ( 'NONE', #119, 12.69999999999999900 ) ;
#11 = CARTESIAN_POINT ( 'NONE',  ( 12.69999999999999900, 1.555301434917138400E-015, 6.000000000000000000 ) ) ;
#12 = SURFACE_SIDE_STYLE ('',( #90 ) ) ;
#13 = FACE_OUTER_BOUND ( 'NONE', #30, .T. ) ;
#14 = FILL_AREA_STYLE_COLOUR ( '', #43 ) ;
#15 = VERTEX_POINT ( 'NONE', #128 ) ;
#16 = AXIS2_PLACEMENT_3D ( 'NONE', #38, #108, #23 ) ;
#17 = EDGE_CURVE ( 'NONE', #15, #112, #9, .T. ) ;
#18 = UNCERTAINTY_MEASURE_WITH_UNIT (LENGTH_MEASURE( 1.000000000000000100E-005 ), #53, 'distance_accuracy_value', 'NONE');
#19 = VERTEX_POINT ( 'NONE', #118 ) ;
#20 = ADVANCED_FACE ( 'NONE', ( #13 ), #86, .F. ) ;
#21 = AXIS2_PLACEMENT_3D ( 'NONE', #39, #6, #72 ) ;
#22 = EDGE_CURVE ( 'NONE', #61, #15, #125, .T. ) ;
#23 = DIRECTION ( 'NONE',  ( 1.000000000000000000, 0.0000000000000000000, 0.0000000000000000000 ) ) ;
#24 = CARTESIAN_POINT ( 'NONE',  ( -12.69999999999999900, 0.0000000000000000000, 6.000000000000000000 ) ) ;
#25 = DIRECTION ( 'NONE',  ( 1.000000000000000000, 0.0000000000000000000, 0.0000000000000000000 ) ) ;
#26 = ORIENTED_EDGE ( 'NONE', *, *, #17, .F. ) ;
#27 = FILL_AREA_STYLE ('',( #14 ) ) ;
#28 = CIRCLE ( 'NONE', #83, 12.69999999999999900 ) ;
#29 = MANIFOLD_SOLID_BREP ( 'Í¹Ì¨-À­Éì1', #121 ) ;
#30 = EDGE_LOOP ( 'NONE', ( #89, #47 ) ) ;
#31 = DIRECTION ( 'NONE',  ( 1.000000000000000000, 0.0000000000000000000, 0.0000000000000000000 ) ) ;
#32 = STYLED_ITEM ( 'NONE', ( #102 ), #29 ) ;
#33 = EDGE_CURVE ( 'NONE', #61, #19, #105, .T. ) ;
#34 = ADVANCED_FACE ( 'NONE', ( #94 ), #40, .T. ) ;
#35 = ORIENTED_EDGE ( 'NONE', *, *, #33, .T. ) ;
#36 = CARTESIAN_POINT ( 'NONE',  ( 0.0000000000000000000, 0.0000000000000000000, 0.0000000000000000000 ) ) ;
#37 = DIRECTION ( 'NONE',  ( -0.0000000000000000000, -0.0000000000000000000, -1.000000000000000000 ) ) ;
#38 = CARTESIAN_POINT ( 'NONE',  ( 0.0000000000000000000, 0.0000000000000000000, 6.000000000000000000 ) ) ;
#39 = CARTESIAN_POINT ( 'NONE',  ( 0.0000000000000000000, 0.0000000000000000000, 0.0000000000000000000 ) ) ;
#40 = CYLINDRICAL_SURFACE ( 'NONE', #74, 12.69999999999999900 ) ;
#41 = CARTESIAN_POINT ( 'NONE',  ( 0.0000000000000000000, 0.0000000000000000000, 6.000000000000000000 ) ) ;
#42 = SURFACE_STYLE_USAGE ( .BOTH. , #111 ) ;
#43 = COLOUR_RGB ( '',1.000000000000000000, 1.000000000000000000, 1.000000000000000000 ) ;
#44 = PRESENTATION_LAYER_ASSIGNMENT (  '', '', ( #32 ) ) ;
#45 =( NAMED_UNIT ( * ) SI_UNIT ( $, .STERADIAN. ) SOLID_ANGLE_UNIT ( ) );
#46 = ORIENTED_EDGE ( 'NONE', *, *, #22, .F. ) ;
#47 = ORIENTED_EDGE ( 'NONE', *, *, #48, .F. ) ;
#48 = EDGE_CURVE ( 'NONE', #19, #112, #99, .T. ) ;
#49 = DIRECTION ( 'NONE',  ( -0.0000000000000000000, -0.0000000000000000000, -1.000000000000000000 ) ) ;
#50 = CARTESIAN_POINT ( 'NONE',  ( 12.69999999999999900, 1.555301434917138400E-015, 6.000000000000000000 ) ) ;
#51 = CARTESIAN_POINT ( 'NONE',  ( 0.0000000000000000000, 0.0000000000000000000, 6.000000000000000000 ) ) ;
#52 = DIRECTION ( 'NONE',  ( 0.0000000000000000000, 0.0000000000000000000, 1.000000000000000000 ) ) ;
#53 =( LENGTH_UNIT ( ) NAMED_UNIT ( * ) SI_UNIT ( .MILLI., .METRE. ) );
#54 = EDGE_CURVE ( 'NONE', #112, #19, #117, .T. ) ;
#55 = EDGE_LOOP ( 'NONE', ( #3, #95 ) ) ;
#56 = AXIS2_PLACEMENT_3D ( 'NONE', #36, #129, #140 ) ;
#57 = DIRECTION ( 'NONE',  ( 0.0000000000000000000, 0.0000000000000000000, 1.000000000000000000 ) ) ;
#58 = ORIENTED_EDGE ( 'NONE', *, *, #54, .T. ) ;
#59 = DIRECTION ( 'NONE',  ( 1.000000000000000000, 0.0000000000000000000, 0.0000000000000000000 ) ) ;
#60 = CARTESIAN_POINT ( 'NONE',  ( 0.0000000000000000000, 0.0000000000000000000, 6.000000000000000000 ) ) ;
#61 = VERTEX_POINT ( 'NONE', #11 ) ;
#62 = CARTESIAN_POINT ( 'NONE',  ( 0.0000000000000000000, 0.0000000000000000000, 6.000000000000000000 ) ) ;
#63 = AXIS2_PLACEMENT_3D ( 'NONE', #69, #134, #59 ) ;
#64 = EDGE_LOOP ( 'NONE', ( #46, #35, #133, #26 ) ) ;
#65 = APPLICATION_CONTEXT ( 'automotive_design' ) ;
#66 = PRESENTATION_STYLE_ASSIGNMENT (( #42 ) ) ;
#67 = VECTOR ( 'NONE', #109, 1000.000000000000000 ) ;
#68 = PRODUCT_DEFINITION_CONTEXT ( 'detailed design', #65, 'design' ) ;
#69 = CARTESIAN_POINT ( 'NONE',  ( 0.0000000000000000000, 0.0000000000000000000, 0.0000000000000000000 ) ) ;
#70 = EDGE_CURVE ( 'NONE', #15, #61, #28, .T. ) ;
#71 =( NAMED_UNIT ( * ) PLANE_ANGLE_UNIT ( ) SI_UNIT ( $, .RADIAN. ) );
#72 = DIRECTION ( 'NONE',  ( 1.000000000000000000, 0.0000000000000000000, -0.0000000000000000000 ) ) ;
#73 = ADVANCED_BREP_SHAPE_REPRESENTATION ( '190061', ( #29, #91 ), #113 ) ;
#74 = AXIS2_PLACEMENT_3D ( 'NONE', #60, #37, #127 ) ;
#75 = FACE_OUTER_BOUND ( 'NONE', #55, .T. ) ;
#76 = DIRECTION ( 'NONE',  ( 0.0000000000000000000, 0.0000000000000000000, 1.000000000000000000 ) ) ;
#77 =( NAMED_UNIT ( * ) SI_UNIT ( $, .STERADIAN. ) SOLID_ANGLE_UNIT ( ) );
#78 = ORIENTED_EDGE ( 'NONE', *, *, #33, .F. ) ;
#79 = COLOUR_RGB ( '',1.000000000000000000, 1.000000000000000000, 1.000000000000000000 ) ;
#80 = APPLICATION_PROTOCOL_DEFINITION ( 'draft international standard', 'automotive_design', 1998, #65 ) ;
#81 = SHAPE_DEFINITION_REPRESENTATION ( #92, #73 ) ;
#82 = ADVANCED_FACE ( 'NONE', ( #75 ), #126, .T. ) ;
#83 = AXIS2_PLACEMENT_3D ( 'NONE', #62, #52, #25 ) ;
#84 = SURFACE_STYLE_USAGE ( .BOTH. , #12 ) ;
#85 = SURFACE_STYLE_FILL_AREA ( #27 ) ;
#86 = PLANE ( 'NONE',  #21 ) ;
#87 = DIRECTION ( 'NONE',  ( -0.0000000000000000000, -0.0000000000000000000, -1.000000000000000000 ) ) ;
#88 = APPLICATION_PROTOCOL_DEFINITION ( 'draft international standard', 'automotive_design', 1998, #100 ) ;
#89 = ORIENTED_EDGE ( 'NONE', *, *, #54, .F. ) ;
#90 = SURFACE_STYLE_FILL_AREA ( #96 ) ;
#91 = AXIS2_PLACEMENT_3D ( 'NONE', #138, #57, #31 ) ;
#92 = PRODUCT_DEFINITION_SHAPE ( 'NONE', 'NONE',  #97 ) ;
#93 =( GEOMETRIC_REPRESENTATION_CONTEXT ( 3 ) GLOBAL_UNCERTAINTY_ASSIGNED_CONTEXT ( ( #122 ) ) GLOBAL_UNIT_ASSIGNED_CONTEXT ( ( #5, #71, #135 ) ) REPRESENTATION_CONTEXT ( 'NONE', 'WORKASPACE' ) );
#94 = FACE_OUTER_BOUND ( 'NONE', #7, .T. ) ;
#95 = ORIENTED_EDGE ( 'NONE', *, *, #22, .T. ) ;
#96 = FILL_AREA_STYLE ('',( #136 ) ) ;
#97 = PRODUCT_DEFINITION ( 'Î´Öª', '', #106, #68 ) ;
#98 =( LENGTH_UNIT ( ) NAMED_UNIT ( * ) SI_UNIT ( .MILLI., .METRE. ) );
#99 = CIRCLE ( 'NONE', #63, 12.69999999999999900 ) ;
#100 = APPLICATION_CONTEXT ( 'automotive_design' ) ;
#101 = UNCERTAINTY_MEASURE_WITH_UNIT (LENGTH_MEASURE( 1.000000000000000100E-005 ), #98, 'distance_accuracy_value', 'NONE');
#102 = PRESENTATION_STYLE_ASSIGNMENT (( #84 ) ) ;
#103 = PRODUCT_CONTEXT ( 'NONE', #100, 'mechanical' ) ;
#104 = AXIS2_PLACEMENT_3D ( 'NONE', #51, #76, #120 ) ;
#105 = LINE ( 'NONE', #50, #132 ) ;
#106 = PRODUCT_DEFINITION_FORMATION_WITH_SPECIFIED_SOURCE ( 'ÈÎºÎ', '', #8, .NOT_KNOWN. ) ;
#107 = MECHANICAL_DESIGN_GEOMETRIC_PRESENTATION_REPRESENTATION (  '', ( #32 ), #93 ) ;
#108 = DIRECTION ( 'NONE',  ( 0.0000000000000000000, 0.0000000000000000000, 1.000000000000000000 ) ) ;
#109 = DIRECTION ( 'NONE',  ( -0.0000000000000000000, -0.0000000000000000000, -1.000000000000000000 ) ) ;
#110 = CARTESIAN_POINT ( 'NONE',  ( -12.69999999999999900, 0.0000000000000000000, 0.0000000000000000000 ) ) ;
#111 = SURFACE_SIDE_STYLE ('',( #85 ) ) ;
#112 = VERTEX_POINT ( 'NONE', #110 ) ;
#113 =( GEOMETRIC_REPRESENTATION_CONTEXT ( 3 ) GLOBAL_UNCERTAINTY_ASSIGNED_CONTEXT ( ( #18 ) ) GLOBAL_UNIT_ASSIGNED_CONTEXT ( ( #53, #139, #77 ) ) REPRESENTATION_CONTEXT ( 'NONE', 'WORKASPACE' ) );
#114 = PRODUCT_RELATED_PRODUCT_CATEGORY ( 'part', '', ( #8 ) ) ;
#115 = ORIENTED_EDGE ( 'NONE', *, *, #70, .F. ) ;
#116 =( NAMED_UNIT ( * ) PLANE_ANGLE_UNIT ( ) SI_UNIT ( $, .RADIAN. ) );
#117 = CIRCLE ( 'NONE', #56, 12.69999999999999900 ) ;
#118 = CARTESIAN_POINT ( 'NONE',  ( 12.69999999999999900, 1.555301434917138400E-015, 0.0000000000000000000 ) ) ;
#119 = AXIS2_PLACEMENT_3D ( 'NONE', #41, #87, #4 ) ;
#120 = DIRECTION ( 'NONE',  ( 1.000000000000000000, 0.0000000000000000000, -0.0000000000000000000 ) ) ;
#121 = CLOSED_SHELL ( 'NONE', ( #123, #34, #82, #20 ) ) ;
#122 = UNCERTAINTY_MEASURE_WITH_UNIT (LENGTH_MEASURE( 1.000000000000000100E-005 ), #5, 'distance_accuracy_value', 'NONE');
#123 = ADVANCED_FACE ( 'NONE', ( #130 ), #10, .T. ) ;
#124 = STYLED_ITEM ( 'NONE', ( #66 ), #73 ) ;
#125 = CIRCLE ( 'NONE', #16, 12.69999999999999900 ) ;
#126 = PLANE ( 'NONE',  #104 ) ;
#127 = DIRECTION ( 'NONE',  ( -1.000000000000000000, 0.0000000000000000000, 0.0000000000000000000 ) ) ;
#128 = CARTESIAN_POINT ( 'NONE',  ( -12.69999999999999900, 0.0000000000000000000, 6.000000000000000000 ) ) ;
#129 = DIRECTION ( 'NONE',  ( 0.0000000000000000000, 0.0000000000000000000, 1.000000000000000000 ) ) ;
#130 = FACE_OUTER_BOUND ( 'NONE', #64, .T. ) ;
#131 = PRESENTATION_LAYER_ASSIGNMENT (  '', '', ( #124 ) ) ;
#132 = VECTOR ( 'NONE', #49, 1000.000000000000000 ) ;
#133 = ORIENTED_EDGE ( 'NONE', *, *, #48, .T. ) ;
#134 = DIRECTION ( 'NONE',  ( 0.0000000000000000000, 0.0000000000000000000, 1.000000000000000000 ) ) ;
#135 =( NAMED_UNIT ( * ) SI_UNIT ( $, .STERADIAN. ) SOLID_ANGLE_UNIT ( ) );
#136 = FILL_AREA_STYLE_COLOUR ( '', #79 ) ;
#137 = MECHANICAL_DESIGN_GEOMETRIC_PRESENTATION_REPRESENTATION (  '', ( #124 ), #2 ) ;
#138 = CARTESIAN_POINT ( 'NONE',  ( 0.0000000000000000000, 0.0000000000000000000, 0.0000000000000000000 ) ) ;
#139 =( NAMED_UNIT ( * ) PLANE_ANGLE_UNIT ( ) SI_UNIT ( $, .RADIAN. ) );
#140 = DIRECTION ( 'NONE',  ( 1.000000000000000000, 0.0000000000000000000, 0.0000000000000000000 ) ) ;
ENDSEC;
END-ISO-10303-21;
