ISO-10303-21;
HEADER;
FILE_DESCRIPTION (( 'STEP AP214' ),
    '1' );
FILE_NAME ('190059.STEP',
    '2019-07-16T03:19:13',
    ( 'user' ),
    ( 'Î¢ÈíÖÐ¹ú' ),
    'SwSTEP 2.0',
    'SolidWorks 2016',
    '' );
FILE_SCHEMA (( 'AUTOMOTIVE_DESIGN' ));
ENDSEC;

DATA;
#1 = ORIENTED_EDGE ( 'NONE', *, *, #101, .T. ) ;
#2 = DIRECTION ( 'NONE',  ( 0.0000000000000000000, 0.0000000000000000000, 1.000000000000000000 ) ) ;
#3 = PLANE ( 'NONE',  #133 ) ;
#4 = CARTESIAN_POINT ( 'NONE',  ( 0.0000000000000000000, 0.0000000000000000000, 3.000000000000000000 ) ) ;
#5 = APPLICATION_CONTEXT ( 'automotive_design' ) ;
#6 = AXIS2_PLACEMENT_3D ( 'NONE', #137, #82, #111 ) ;
#7 = EDGE_CURVE ( 'NONE', #136, #116, #94, .T. ) ;
#8 = ORIENTED_EDGE ( 'NONE', *, *, #106, .F. ) ;
#9 = CYLINDRICAL_SURFACE ( 'NONE', #34, 10.00000000000000000 ) ;
#10 = CIRCLE ( 'NONE', #139, 10.00000000000000000 ) ;
#11 = CARTESIAN_POINT ( 'NONE',  ( 0.0000000000000000000, 0.0000000000000000000, 3.000000000000000000 ) ) ;
#12 = CARTESIAN_POINT ( 'NONE',  ( 0.0000000000000000000, 0.0000000000000000000, 3.000000000000000000 ) ) ;
#13 = AXIS2_PLACEMENT_3D ( 'NONE', #11, #92, #47 ) ;
#14 = MANIFOLD_SOLID_BREP ( 'Í¹Ì¨-À­Éì1', #87 ) ;
#15 = DIRECTION ( 'NONE',  ( -0.0000000000000000000, -0.0000000000000000000, -1.000000000000000000 ) ) ;
#16 = MECHANICAL_DESIGN_GEOMETRIC_PRESENTATION_REPRESENTATION (  '', ( #25 ), #100 ) ;
#17 = DIRECTION ( 'NONE',  ( 1.000000000000000000, 0.0000000000000000000, 0.0000000000000000000 ) ) ;
#18 = ORIENTED_EDGE ( 'NONE', *, *, #101, .F. ) ;
#19 = ADVANCED_FACE ( 'NONE', ( #88 ), #3, .T. ) ;
#20 = PRESENTATION_STYLE_ASSIGNMENT (( #46 ) ) ;
#21 = AXIS2_PLACEMENT_3D ( 'NONE', #31, #110, #123 ) ;
#22 = ORIENTED_EDGE ( 'NONE', *, *, #7, .T. ) ;
#23 = SURFACE_SIDE_STYLE ('',( #107 ) ) ;
#24 = EDGE_LOOP ( 'NONE', ( #22, #91 ) ) ;
#25 = STYLED_ITEM ( 'NONE', ( #20 ), #14 ) ;
#26 = LINE ( 'NONE', #135, #43 ) ;
#27 = UNCERTAINTY_MEASURE_WITH_UNIT (LENGTH_MEASURE( 1.000000000000000100E-005 ), #42, 'distance_accuracy_value', 'NONE');
#28 = DIRECTION ( 'NONE',  ( 0.0000000000000000000, 0.0000000000000000000, 1.000000000000000000 ) ) ;
#29 = DIRECTION ( 'NONE',  ( 1.000000000000000000, 0.0000000000000000000, 0.0000000000000000000 ) ) ;
#30 = SURFACE_SIDE_STYLE ('',( #119 ) ) ;
#31 = CARTESIAN_POINT ( 'NONE',  ( 0.0000000000000000000, 0.0000000000000000000, 0.0000000000000000000 ) ) ;
#32 = VECTOR ( 'NONE', #37, 1000.000000000000000 ) ;
#33 = PRODUCT_CONTEXT ( 'NONE', #5, 'mechanical' ) ;
#34 = AXIS2_PLACEMENT_3D ( 'NONE', #122, #39, #58 ) ;
#35 = VERTEX_POINT ( 'NONE', #98 ) ;
#36 = LINE ( 'NONE', #48, #32 ) ;
#37 = DIRECTION ( 'NONE',  ( -0.0000000000000000000, -0.0000000000000000000, -1.000000000000000000 ) ) ;
#38 = DIRECTION ( 'NONE',  ( -1.000000000000000000, 0.0000000000000000000, 0.0000000000000000000 ) ) ;
#39 = DIRECTION ( 'NONE',  ( -0.0000000000000000000, -0.0000000000000000000, -1.000000000000000000 ) ) ;
#40 = AXIS2_PLACEMENT_3D ( 'NONE', #12, #95, #38 ) ;
#41 = COLOUR_RGB ( '',1.000000000000000000, 1.000000000000000000, 1.000000000000000000 ) ;
#42 =( LENGTH_UNIT ( ) NAMED_UNIT ( * ) SI_UNIT ( .MILLI., .METRE. ) );
#43 = VECTOR ( 'NONE', #15, 1000.000000000000000 ) ;
#44 = PRODUCT_DEFINITION_CONTEXT ( 'detailed design', #99, 'design' ) ;
#45 =( GEOMETRIC_REPRESENTATION_CONTEXT ( 3 ) GLOBAL_UNCERTAINTY_ASSIGNED_CONTEXT ( ( #89 ) ) GLOBAL_UNIT_ASSIGNED_CONTEXT ( ( #66, #52, #83 ) ) REPRESENTATION_CONTEXT ( 'NONE', 'WORKASPACE' ) );
#46 = SURFACE_STYLE_USAGE ( .BOTH. , #23 ) ;
#47 = DIRECTION ( 'NONE',  ( 1.000000000000000000, 0.0000000000000000000, 0.0000000000000000000 ) ) ;
#48 = CARTESIAN_POINT ( 'NONE',  ( -10.00000000000000000, 0.0000000000000000000, 3.000000000000000000 ) ) ;
#49 =( NAMED_UNIT ( * ) PLANE_ANGLE_UNIT ( ) SI_UNIT ( $, .RADIAN. ) );
#50 = ORIENTED_EDGE ( 'NONE', *, *, #140, .F. ) ;
#51 = ORIENTED_EDGE ( 'NONE', *, *, #120, .F. ) ;
#52 =( NAMED_UNIT ( * ) PLANE_ANGLE_UNIT ( ) SI_UNIT ( $, .RADIAN. ) );
#53 = DIRECTION ( 'NONE',  ( 1.000000000000000000, 0.0000000000000000000, 0.0000000000000000000 ) ) ;
#54 = DIRECTION ( 'NONE',  ( 0.0000000000000000000, 0.0000000000000000000, 1.000000000000000000 ) ) ;
#55 = ORIENTED_EDGE ( 'NONE', *, *, #79, .F. ) ;
#56 = CIRCLE ( 'NONE', #21, 10.00000000000000000 ) ;
#57 = APPLICATION_PROTOCOL_DEFINITION ( 'draft international standard', 'automotive_design', 1998, #5 ) ;
#58 = DIRECTION ( 'NONE',  ( -1.000000000000000000, 0.0000000000000000000, 0.0000000000000000000 ) ) ;
#59 = VERTEX_POINT ( 'NONE', #96 ) ;
#60 =( LENGTH_UNIT ( ) NAMED_UNIT ( * ) SI_UNIT ( .MILLI., .METRE. ) );
#61 = STYLED_ITEM ( 'NONE', ( #67 ), #129 ) ;
#62 = FACE_OUTER_BOUND ( 'NONE', #104, .T. ) ;
#63 = DIRECTION ( 'NONE',  ( 1.000000000000000000, 0.0000000000000000000, -0.0000000000000000000 ) ) ;
#64 = AXIS2_PLACEMENT_3D ( 'NONE', #105, #76, #53 ) ;
#65 = ORIENTED_EDGE ( 'NONE', *, *, #106, .T. ) ;
#66 =( LENGTH_UNIT ( ) NAMED_UNIT ( * ) SI_UNIT ( .MILLI., .METRE. ) );
#67 = PRESENTATION_STYLE_ASSIGNMENT (( #109 ) ) ;
#68 = ADVANCED_FACE ( 'NONE', ( #118 ), #126, .F. ) ;
#69 = PRESENTATION_LAYER_ASSIGNMENT (  '', '', ( #61 ) ) ;
#70 = PRODUCT_DEFINITION ( 'Î´Öª', '', #78, #44 ) ;
#71 =( NAMED_UNIT ( * ) PLANE_ANGLE_UNIT ( ) SI_UNIT ( $, .RADIAN. ) );
#72 = CARTESIAN_POINT ( 'NONE',  ( -10.00000000000000000, 0.0000000000000000000, 3.000000000000000000 ) ) ;
#73 =( NAMED_UNIT ( * ) SI_UNIT ( $, .STERADIAN. ) SOLID_ANGLE_UNIT ( ) );
#74 = FILL_AREA_STYLE_COLOUR ( '', #41 ) ;
#75 = COLOUR_RGB ( '',1.000000000000000000, 1.000000000000000000, 1.000000000000000000 ) ;
#76 = DIRECTION ( 'NONE',  ( 0.0000000000000000000, 0.0000000000000000000, 1.000000000000000000 ) ) ;
#77 = MECHANICAL_DESIGN_GEOMETRIC_PRESENTATION_REPRESENTATION (  '', ( #61 ), #84 ) ;
#78 = PRODUCT_DEFINITION_FORMATION_WITH_SPECIFIED_SOURCE ( 'ÈÎºÎ', '', #132, .NOT_KNOWN. ) ;
#79 = EDGE_CURVE ( 'NONE', #136, #35, #36, .T. ) ;
#80 = EDGE_LOOP ( 'NONE', ( #50, #18 ) ) ;
#81 = FILL_AREA_STYLE_COLOUR ( '', #75 ) ;
#82 = DIRECTION ( 'NONE',  ( 0.0000000000000000000, 0.0000000000000000000, 1.000000000000000000 ) ) ;
#83 =( NAMED_UNIT ( * ) SI_UNIT ( $, .STERADIAN. ) SOLID_ANGLE_UNIT ( ) );
#84 =( GEOMETRIC_REPRESENTATION_CONTEXT ( 3 ) GLOBAL_UNCERTAINTY_ASSIGNED_CONTEXT ( ( #27 ) ) GLOBAL_UNIT_ASSIGNED_CONTEXT ( ( #42, #71, #97 ) ) REPRESENTATION_CONTEXT ( 'NONE', 'WORKASPACE' ) );
#85 = PRODUCT_RELATED_PRODUCT_CATEGORY ( 'part', '', ( #132 ) ) ;
#86 = PRESENTATION_LAYER_ASSIGNMENT (  '', '', ( #25 ) ) ;
#87 = CLOSED_SHELL ( 'NONE', ( #102, #117, #19, #68 ) ) ;
#88 = FACE_OUTER_BOUND ( 'NONE', #24, .T. ) ;
#89 = UNCERTAINTY_MEASURE_WITH_UNIT (LENGTH_MEASURE( 1.000000000000000100E-005 ), #66, 'distance_accuracy_value', 'NONE');
#90 = ORIENTED_EDGE ( 'NONE', *, *, #7, .F. ) ;
#91 = ORIENTED_EDGE ( 'NONE', *, *, #120, .T. ) ;
#92 = DIRECTION ( 'NONE',  ( 0.0000000000000000000, 0.0000000000000000000, 1.000000000000000000 ) ) ;
#93 = FACE_OUTER_BOUND ( 'NONE', #138, .T. ) ;
#94 = CIRCLE ( 'NONE', #134, 10.00000000000000000 ) ;
#95 = DIRECTION ( 'NONE',  ( -0.0000000000000000000, -0.0000000000000000000, -1.000000000000000000 ) ) ;
#96 = CARTESIAN_POINT ( 'NONE',  ( 10.00000000000000000, 1.224646799147353300E-015, 0.0000000000000000000 ) ) ;
#97 =( NAMED_UNIT ( * ) SI_UNIT ( $, .STERADIAN. ) SOLID_ANGLE_UNIT ( ) );
#98 = CARTESIAN_POINT ( 'NONE',  ( -10.00000000000000000, 0.0000000000000000000, 0.0000000000000000000 ) ) ;
#99 = APPLICATION_CONTEXT ( 'automotive_design' ) ;
#100 =( GEOMETRIC_REPRESENTATION_CONTEXT ( 3 ) GLOBAL_UNCERTAINTY_ASSIGNED_CONTEXT ( ( #115 ) ) GLOBAL_UNIT_ASSIGNED_CONTEXT ( ( #60, #49, #73 ) ) REPRESENTATION_CONTEXT ( 'NONE', 'WORKASPACE' ) );
#101 = EDGE_CURVE ( 'NONE', #59, #35, #10, .T. ) ;
#102 = ADVANCED_FACE ( 'NONE', ( #93 ), #9, .T. ) ;
#103 = ORIENTED_EDGE ( 'NONE', *, *, #79, .T. ) ;
#104 = EDGE_LOOP ( 'NONE', ( #8, #90, #103, #112 ) ) ;
#105 = CARTESIAN_POINT ( 'NONE',  ( 0.0000000000000000000, 0.0000000000000000000, 0.0000000000000000000 ) ) ;
#106 = EDGE_CURVE ( 'NONE', #116, #59, #26, .T. ) ;
#107 = SURFACE_STYLE_FILL_AREA ( #113 ) ;
#108 = CARTESIAN_POINT ( 'NONE',  ( 0.0000000000000000000, 0.0000000000000000000, 3.000000000000000000 ) ) ;
#109 = SURFACE_STYLE_USAGE ( .BOTH. , #30 ) ;
#110 = DIRECTION ( 'NONE',  ( 0.0000000000000000000, 0.0000000000000000000, 1.000000000000000000 ) ) ;
#111 = DIRECTION ( 'NONE',  ( 1.000000000000000000, 0.0000000000000000000, -0.0000000000000000000 ) ) ;
#112 = ORIENTED_EDGE ( 'NONE', *, *, #140, .T. ) ;
#113 = FILL_AREA_STYLE ('',( #74 ) ) ;
#114 = CIRCLE ( 'NONE', #13, 10.00000000000000000 ) ;
#115 = UNCERTAINTY_MEASURE_WITH_UNIT (LENGTH_MEASURE( 1.000000000000000100E-005 ), #60, 'distance_accuracy_value', 'NONE');
#116 = VERTEX_POINT ( 'NONE', #124 ) ;
#117 = ADVANCED_FACE ( 'NONE', ( #62 ), #121, .T. ) ;
#118 = FACE_OUTER_BOUND ( 'NONE', #80, .T. ) ;
#119 = SURFACE_STYLE_FILL_AREA ( #127 ) ;
#120 = EDGE_CURVE ( 'NONE', #116, #136, #114, .T. ) ;
#121 = CYLINDRICAL_SURFACE ( 'NONE', #40, 10.00000000000000000 ) ;
#122 = CARTESIAN_POINT ( 'NONE',  ( 0.0000000000000000000, 0.0000000000000000000, 3.000000000000000000 ) ) ;
#123 = DIRECTION ( 'NONE',  ( 1.000000000000000000, 0.0000000000000000000, 0.0000000000000000000 ) ) ;
#124 = CARTESIAN_POINT ( 'NONE',  ( 10.00000000000000000, 1.224646799147353300E-015, 3.000000000000000000 ) ) ;
#125 = APPLICATION_PROTOCOL_DEFINITION ( 'draft international standard', 'automotive_design', 1998, #99 ) ;
#126 = PLANE ( 'NONE',  #6 ) ;
#127 = FILL_AREA_STYLE ('',( #81 ) ) ;
#128 = SHAPE_DEFINITION_REPRESENTATION ( #131, #129 ) ;
#129 = ADVANCED_BREP_SHAPE_REPRESENTATION ( '190059', ( #14, #64 ), #45 ) ;
#130 = CARTESIAN_POINT ( 'NONE',  ( 0.0000000000000000000, 0.0000000000000000000, 0.0000000000000000000 ) ) ;
#131 = PRODUCT_DEFINITION_SHAPE ( 'NONE', 'NONE',  #70 ) ;
#132 = PRODUCT ( '190059', '190059', '', ( #33 ) ) ;
#133 = AXIS2_PLACEMENT_3D ( 'NONE', #4, #2, #63 ) ;
#134 = AXIS2_PLACEMENT_3D ( 'NONE', #108, #54, #17 ) ;
#135 = CARTESIAN_POINT ( 'NONE',  ( 10.00000000000000000, 1.224646799147353300E-015, 3.000000000000000000 ) ) ;
#136 = VERTEX_POINT ( 'NONE', #72 ) ;
#137 = CARTESIAN_POINT ( 'NONE',  ( 0.0000000000000000000, 0.0000000000000000000, 0.0000000000000000000 ) ) ;
#138 = EDGE_LOOP ( 'NONE', ( #51, #65, #1, #55 ) ) ;
#139 = AXIS2_PLACEMENT_3D ( 'NONE', #130, #28, #29 ) ;
#140 = EDGE_CURVE ( 'NONE', #35, #59, #56, .T. ) ;
ENDSEC;
END-ISO-10303-21;
