ISO-10303-21;
HEADER;
FILE_DESCRIPTION (( 'STEP AP214' ),
    '1' );
FILE_NAME ('190128.STEP',
    '2019-07-17T06:40:47',
    ( 'user' ),
    ( 'Î¢ÈíÖÐ¹ú' ),
    'SwSTEP 2.0',
    'SolidWorks 2016',
    '' );
FILE_SCHEMA (( 'AUTOMOTIVE_DESIGN' ));
ENDSEC;

DATA;
#1 = AXIS2_PLACEMENT_3D ( 'NONE', #125, #88, #20 ) ;
#2 = PRODUCT_DEFINITION_CONTEXT ( 'detailed design', #99, 'design' ) ;
#3 = EDGE_LOOP ( 'NONE', ( #13, #63, #35, #96 ) ) ;
#4 = DIRECTION ( 'NONE',  ( 1.000000000000000000, 0.0000000000000000000, 0.0000000000000000000 ) ) ;
#5 =( NAMED_UNIT ( * ) SI_UNIT ( $, .STERADIAN. ) SOLID_ANGLE_UNIT ( ) );
#6 =( LENGTH_UNIT ( ) NAMED_UNIT ( * ) SI_UNIT ( .MILLI., .METRE. ) );
#7 = CARTESIAN_POINT ( 'NONE',  ( -12.50000000000000000, 0.0000000000000000000, 0.0000000000000000000 ) ) ;
#8 = ORIENTED_EDGE ( 'NONE', *, *, #75, .T. ) ;
#9 = COLOUR_RGB ( '',1.000000000000000000, 1.000000000000000000, 1.000000000000000000 ) ;
#10 =( GEOMETRIC_REPRESENTATION_CONTEXT ( 3 ) GLOBAL_UNCERTAINTY_ASSIGNED_CONTEXT ( ( #92 ) ) GLOBAL_UNIT_ASSIGNED_CONTEXT ( ( #28, #71, #5 ) ) REPRESENTATION_CONTEXT ( 'NONE', 'WORKASPACE' ) );
#11 = AXIS2_PLACEMENT_3D ( 'NONE', #121, #95, #38 ) ;
#12 = LINE ( 'NONE', #113, #122 ) ;
#13 = ORIENTED_EDGE ( 'NONE', *, *, #83, .F. ) ;
#14 = ADVANCED_FACE ( 'NONE', ( #76 ), #43, .T. ) ;
#15 = CARTESIAN_POINT ( 'NONE',  ( 0.0000000000000000000, 0.0000000000000000000, 3.000000000000000000 ) ) ;
#16 = FILL_AREA_STYLE_COLOUR ( '', #9 ) ;
#17 = SURFACE_STYLE_USAGE ( .BOTH. , #72 ) ;
#18 = FACE_OUTER_BOUND ( 'NONE', #31, .T. ) ;
#19 = DIRECTION ( 'NONE',  ( 1.000000000000000000, 0.0000000000000000000, 0.0000000000000000000 ) ) ;
#20 = DIRECTION ( 'NONE',  ( 1.000000000000000000, 0.0000000000000000000, -0.0000000000000000000 ) ) ;
#21 = CARTESIAN_POINT ( 'NONE',  ( 12.50000000000000000, 1.530808498934191500E-015, 3.000000000000000000 ) ) ;
#22 = DIRECTION ( 'NONE',  ( 1.000000000000000000, 0.0000000000000000000, 0.0000000000000000000 ) ) ;
#23 = AXIS2_PLACEMENT_3D ( 'NONE', #15, #80, #4 ) ;
#24 = PRESENTATION_LAYER_ASSIGNMENT (  '', '', ( #100 ) ) ;
#25 = PLANE ( 'NONE',  #133 ) ;
#26 = CLOSED_SHELL ( 'NONE', ( #14, #123, #44, #106 ) ) ;
#27 =( NAMED_UNIT ( * ) SI_UNIT ( $, .STERADIAN. ) SOLID_ANGLE_UNIT ( ) );
#28 =( LENGTH_UNIT ( ) NAMED_UNIT ( * ) SI_UNIT ( .MILLI., .METRE. ) );
#29 =( LENGTH_UNIT ( ) NAMED_UNIT ( * ) SI_UNIT ( .MILLI., .METRE. ) );
#30 = APPLICATION_PROTOCOL_DEFINITION ( 'draft international standard', 'automotive_design', 1998, #99 ) ;
#31 = EDGE_LOOP ( 'NONE', ( #47, #119 ) ) ;
#32 = SURFACE_STYLE_FILL_AREA ( #82 ) ;
#33 = MECHANICAL_DESIGN_GEOMETRIC_PRESENTATION_REPRESENTATION (  '', ( #100 ), #59 ) ;
#34 = PRODUCT_DEFINITION ( 'Î´Öª', '', #87, #2 ) ;
#35 = ORIENTED_EDGE ( 'NONE', *, *, #45, .T. ) ;
#36 = ORIENTED_EDGE ( 'NONE', *, *, #91, .F. ) ;
#37 = DIRECTION ( 'NONE',  ( -0.0000000000000000000, -0.0000000000000000000, -1.000000000000000000 ) ) ;
#38 = DIRECTION ( 'NONE',  ( 1.000000000000000000, 0.0000000000000000000, 0.0000000000000000000 ) ) ;
#39 =( NAMED_UNIT ( * ) PLANE_ANGLE_UNIT ( ) SI_UNIT ( $, .RADIAN. ) );
#40 = DIRECTION ( 'NONE',  ( -0.0000000000000000000, -0.0000000000000000000, -1.000000000000000000 ) ) ;
#41 = SURFACE_STYLE_USAGE ( .BOTH. , #114 ) ;
#42 = VERTEX_POINT ( 'NONE', #21 ) ;
#43 = CYLINDRICAL_SURFACE ( 'NONE', #101, 12.50000000000000000 ) ;
#44 = ADVANCED_FACE ( 'NONE', ( #18 ), #97, .T. ) ;
#45 = EDGE_CURVE ( 'NONE', #78, #115, #132, .T. ) ;
#46 = SHAPE_DEFINITION_REPRESENTATION ( #68, #116 ) ;
#47 = ORIENTED_EDGE ( 'NONE', *, *, #93, .T. ) ;
#48 = PRESENTATION_LAYER_ASSIGNMENT (  '', '', ( #53 ) ) ;
#49 = DIRECTION ( 'NONE',  ( -1.000000000000000000, 0.0000000000000000000, 0.0000000000000000000 ) ) ;
#50 = DIRECTION ( 'NONE',  ( 1.000000000000000000, 0.0000000000000000000, -0.0000000000000000000 ) ) ;
#51 = DIRECTION ( 'NONE',  ( -0.0000000000000000000, -0.0000000000000000000, -1.000000000000000000 ) ) ;
#52 = DIRECTION ( 'NONE',  ( 0.0000000000000000000, 0.0000000000000000000, 1.000000000000000000 ) ) ;
#53 = STYLED_ITEM ( 'NONE', ( #111 ), #128 ) ;
#54 = FACE_OUTER_BOUND ( 'NONE', #126, .T. ) ;
#55 = COLOUR_RGB ( '',1.000000000000000000, 1.000000000000000000, 1.000000000000000000 ) ;
#56 = APPLICATION_CONTEXT ( 'automotive_design' ) ;
#57 = DIRECTION ( 'NONE',  ( 0.0000000000000000000, 0.0000000000000000000, 1.000000000000000000 ) ) ;
#58 = DIRECTION ( 'NONE',  ( -0.0000000000000000000, -0.0000000000000000000, -1.000000000000000000 ) ) ;
#59 =( GEOMETRIC_REPRESENTATION_CONTEXT ( 3 ) GLOBAL_UNCERTAINTY_ASSIGNED_CONTEXT ( ( #136 ) ) GLOBAL_UNIT_ASSIGNED_CONTEXT ( ( #29, #39, #67 ) ) REPRESENTATION_CONTEXT ( 'NONE', 'WORKASPACE' ) );
#60 = FILL_AREA_STYLE ('',( #16 ) ) ;
#61 = EDGE_LOOP ( 'NONE', ( #36, #140, #8, #118 ) ) ;
#62 = AXIS2_PLACEMENT_3D ( 'NONE', #120, #74, #22 ) ;
#63 = ORIENTED_EDGE ( 'NONE', *, *, #93, .F. ) ;
#64 = APPLICATION_PROTOCOL_DEFINITION ( 'draft international standard', 'automotive_design', 1998, #56 ) ;
#65 = CARTESIAN_POINT ( 'NONE',  ( -12.50000000000000000, 0.0000000000000000000, 3.000000000000000000 ) ) ;
#66 = ORIENTED_EDGE ( 'NONE', *, *, #109, .F. ) ;
#67 =( NAMED_UNIT ( * ) SI_UNIT ( $, .STERADIAN. ) SOLID_ANGLE_UNIT ( ) );
#68 = PRODUCT_DEFINITION_SHAPE ( 'NONE', 'NONE',  #34 ) ;
#69 = PRESENTATION_STYLE_ASSIGNMENT (( #41 ) ) ;
#70 = CARTESIAN_POINT ( 'NONE',  ( 0.0000000000000000000, 0.0000000000000000000, 0.0000000000000000000 ) ) ;
#71 =( NAMED_UNIT ( * ) PLANE_ANGLE_UNIT ( ) SI_UNIT ( $, .RADIAN. ) );
#72 = SURFACE_SIDE_STYLE ('',( #32 ) ) ;
#73 = CARTESIAN_POINT ( 'NONE',  ( 0.0000000000000000000, 0.0000000000000000000, 3.000000000000000000 ) ) ;
#74 = DIRECTION ( 'NONE',  ( 0.0000000000000000000, 0.0000000000000000000, 1.000000000000000000 ) ) ;
#75 = EDGE_CURVE ( 'NONE', #98, #115, #104, .T. ) ;
#76 = FACE_OUTER_BOUND ( 'NONE', #61, .T. ) ;
#77 = CYLINDRICAL_SURFACE ( 'NONE', #107, 12.50000000000000000 ) ;
#78 = VERTEX_POINT ( 'NONE', #65 ) ;
#79 =( GEOMETRIC_REPRESENTATION_CONTEXT ( 3 ) GLOBAL_UNCERTAINTY_ASSIGNED_CONTEXT ( ( #103 ) ) GLOBAL_UNIT_ASSIGNED_CONTEXT ( ( #6, #84, #27 ) ) REPRESENTATION_CONTEXT ( 'NONE', 'WORKASPACE' ) );
#80 = DIRECTION ( 'NONE',  ( 0.0000000000000000000, 0.0000000000000000000, 1.000000000000000000 ) ) ;
#81 = AXIS2_PLACEMENT_3D ( 'NONE', #134, #57, #19 ) ;
#82 = FILL_AREA_STYLE ('',( #85 ) ) ;
#83 = EDGE_CURVE ( 'NONE', #42, #98, #12, .T. ) ;
#84 =( NAMED_UNIT ( * ) PLANE_ANGLE_UNIT ( ) SI_UNIT ( $, .RADIAN. ) );
#85 = FILL_AREA_STYLE_COLOUR ( '', #55 ) ;
#86 = CIRCLE ( 'NONE', #11, 12.50000000000000000 ) ;
#87 = PRODUCT_DEFINITION_FORMATION_WITH_SPECIFIED_SOURCE ( 'ÈÎºÎ', '', #124, .NOT_KNOWN. ) ;
#88 = DIRECTION ( 'NONE',  ( 0.0000000000000000000, 0.0000000000000000000, 1.000000000000000000 ) ) ;
#89 = PRODUCT_CONTEXT ( 'NONE', #56, 'mechanical' ) ;
#90 = CIRCLE ( 'NONE', #23, 12.50000000000000000 ) ;
#91 = EDGE_CURVE ( 'NONE', #42, #78, #90, .T. ) ;
#92 = UNCERTAINTY_MEASURE_WITH_UNIT (LENGTH_MEASURE( 1.000000000000000100E-005 ), #28, 'distance_accuracy_value', 'NONE');
#93 = EDGE_CURVE ( 'NONE', #78, #42, #86, .T. ) ;
#94 = ORIENTED_EDGE ( 'NONE', *, *, #75, .F. ) ;
#95 = DIRECTION ( 'NONE',  ( 0.0000000000000000000, 0.0000000000000000000, 1.000000000000000000 ) ) ;
#96 = ORIENTED_EDGE ( 'NONE', *, *, #109, .T. ) ;
#97 = PLANE ( 'NONE',  #1 ) ;
#98 = VERTEX_POINT ( 'NONE', #108 ) ;
#99 = APPLICATION_CONTEXT ( 'automotive_design' ) ;
#100 = STYLED_ITEM ( 'NONE', ( #69 ), #116 ) ;
#101 = AXIS2_PLACEMENT_3D ( 'NONE', #135, #51, #110 ) ;
#102 = CIRCLE ( 'NONE', #81, 12.50000000000000000 ) ;
#103 = UNCERTAINTY_MEASURE_WITH_UNIT (LENGTH_MEASURE( 1.000000000000000100E-005 ), #6, 'distance_accuracy_value', 'NONE');
#104 = CIRCLE ( 'NONE', #129, 12.50000000000000000 ) ;
#105 = FACE_OUTER_BOUND ( 'NONE', #3, .T. ) ;
#106 = ADVANCED_FACE ( 'NONE', ( #54 ), #25, .F. ) ;
#107 = AXIS2_PLACEMENT_3D ( 'NONE', #73, #37, #49 ) ;
#108 = CARTESIAN_POINT ( 'NONE',  ( 12.50000000000000000, 1.530808498934191500E-015, 0.0000000000000000000 ) ) ;
#109 = EDGE_CURVE ( 'NONE', #115, #98, #102, .T. ) ;
#110 = DIRECTION ( 'NONE',  ( -1.000000000000000000, 0.0000000000000000000, 0.0000000000000000000 ) ) ;
#111 = PRESENTATION_STYLE_ASSIGNMENT (( #17 ) ) ;
#112 = DIRECTION ( 'NONE',  ( 0.0000000000000000000, 0.0000000000000000000, 1.000000000000000000 ) ) ;
#113 = CARTESIAN_POINT ( 'NONE',  ( 12.50000000000000000, 1.530808498934191500E-015, 3.000000000000000000 ) ) ;
#114 = SURFACE_SIDE_STYLE ('',( #117 ) ) ;
#115 = VERTEX_POINT ( 'NONE', #7 ) ;
#116 = ADVANCED_BREP_SHAPE_REPRESENTATION ( '190128', ( #128, #62 ), #10 ) ;
#117 = SURFACE_STYLE_FILL_AREA ( #60 ) ;
#118 = ORIENTED_EDGE ( 'NONE', *, *, #45, .F. ) ;
#119 = ORIENTED_EDGE ( 'NONE', *, *, #91, .T. ) ;
#120 = CARTESIAN_POINT ( 'NONE',  ( 0.0000000000000000000, 0.0000000000000000000, 0.0000000000000000000 ) ) ;
#121 = CARTESIAN_POINT ( 'NONE',  ( 0.0000000000000000000, 0.0000000000000000000, 3.000000000000000000 ) ) ;
#122 = VECTOR ( 'NONE', #40, 1000.000000000000000 ) ;
#123 = ADVANCED_FACE ( 'NONE', ( #105 ), #77, .T. ) ;
#124 = PRODUCT ( '190128', '190128', '', ( #89 ) ) ;
#125 = CARTESIAN_POINT ( 'NONE',  ( 0.0000000000000000000, 0.0000000000000000000, 3.000000000000000000 ) ) ;
#126 = EDGE_LOOP ( 'NONE', ( #66, #94 ) ) ;
#127 = CARTESIAN_POINT ( 'NONE',  ( 0.0000000000000000000, 0.0000000000000000000, 0.0000000000000000000 ) ) ;
#128 = MANIFOLD_SOLID_BREP ( 'Í¹Ì¨-À­Éì1', #26 ) ;
#129 = AXIS2_PLACEMENT_3D ( 'NONE', #127, #52, #139 ) ;
#130 = VECTOR ( 'NONE', #58, 1000.000000000000000 ) ;
#131 = MECHANICAL_DESIGN_GEOMETRIC_PRESENTATION_REPRESENTATION (  '', ( #53 ), #79 ) ;
#132 = LINE ( 'NONE', #138, #130 ) ;
#133 = AXIS2_PLACEMENT_3D ( 'NONE', #70, #112, #50 ) ;
#134 = CARTESIAN_POINT ( 'NONE',  ( 0.0000000000000000000, 0.0000000000000000000, 0.0000000000000000000 ) ) ;
#135 = CARTESIAN_POINT ( 'NONE',  ( 0.0000000000000000000, 0.0000000000000000000, 3.000000000000000000 ) ) ;
#136 = UNCERTAINTY_MEASURE_WITH_UNIT (LENGTH_MEASURE( 1.000000000000000100E-005 ), #29, 'distance_accuracy_value', 'NONE');
#137 = PRODUCT_RELATED_PRODUCT_CATEGORY ( 'part', '', ( #124 ) ) ;
#138 = CARTESIAN_POINT ( 'NONE',  ( -12.50000000000000000, 0.0000000000000000000, 3.000000000000000000 ) ) ;
#139 = DIRECTION ( 'NONE',  ( 1.000000000000000000, 0.0000000000000000000, 0.0000000000000000000 ) ) ;
#140 = ORIENTED_EDGE ( 'NONE', *, *, #83, .T. ) ;
ENDSEC;
END-ISO-10303-21;
