ISO-10303-21;
HEADER;
FILE_DESCRIPTION (( 'STEP AP214' ),
    '1' );
FILE_NAME ('190135.STEP',
    '2019-07-17T09:13:03',
    ( 'user' ),
    ( 'Î¢ÈíÖÐ¹ú' ),
    'SwSTEP 2.0',
    'SolidWorks 2016',
    '' );
FILE_SCHEMA (( 'AUTOMOTIVE_DESIGN' ));
ENDSEC;

DATA;
#1 = LINE ( 'NONE', #35, #59 ) ;
#2 = APPLICATION_PROTOCOL_DEFINITION ( 'draft international standard', 'automotive_design', 1998, #100 ) ;
#3 = DIRECTION ( 'NONE',  ( -1.000000000000000000, 0.0000000000000000000, 0.0000000000000000000 ) ) ;
#4 = ADVANCED_FACE ( 'NONE', ( #109 ), #81, .F. ) ;
#5 = CARTESIAN_POINT ( 'NONE',  ( 0.0000000000000000000, 0.0000000000000000000, 0.0000000000000000000 ) ) ;
#6 = ADVANCED_FACE ( 'NONE', ( #44 ), #85, .T. ) ;
#7 = DIRECTION ( 'NONE',  ( 1.000000000000000000, 0.0000000000000000000, 0.0000000000000000000 ) ) ;
#8 = ORIENTED_EDGE ( 'NONE', *, *, #45, .T. ) ;
#9 = DIRECTION ( 'NONE',  ( -0.0000000000000000000, -0.0000000000000000000, -1.000000000000000000 ) ) ;
#10 = AXIS2_PLACEMENT_3D ( 'NONE', #74, #9, #133 ) ;
#11 = FACE_OUTER_BOUND ( 'NONE', #88, .T. ) ;
#12 = CLOSED_SHELL ( 'NONE', ( #6, #131, #106, #4 ) ) ;
#13 = LINE ( 'NONE', #114, #111 ) ;
#14 = STYLED_ITEM ( 'NONE', ( #97 ), #117 ) ;
#15 = DIRECTION ( 'NONE',  ( 0.0000000000000000000, 0.0000000000000000000, 1.000000000000000000 ) ) ;
#16 =( NAMED_UNIT ( * ) SI_UNIT ( $, .STERADIAN. ) SOLID_ANGLE_UNIT ( ) );
#17 = DIRECTION ( 'NONE',  ( 0.0000000000000000000, 0.0000000000000000000, 1.000000000000000000 ) ) ;
#18 =( NAMED_UNIT ( * ) PLANE_ANGLE_UNIT ( ) SI_UNIT ( $, .RADIAN. ) );
#19 = CARTESIAN_POINT ( 'NONE',  ( 12.69999999999999900, 1.555301434917138400E-015, 0.0000000000000000000 ) ) ;
#20 = CARTESIAN_POINT ( 'NONE',  ( 0.0000000000000000000, 0.0000000000000000000, 0.0000000000000000000 ) ) ;
#21 = PRESENTATION_LAYER_ASSIGNMENT (  '', '', ( #14 ) ) ;
#22 = DIRECTION ( 'NONE',  ( 1.000000000000000000, 0.0000000000000000000, 0.0000000000000000000 ) ) ;
#23 =( NAMED_UNIT ( * ) PLANE_ANGLE_UNIT ( ) SI_UNIT ( $, .RADIAN. ) );
#24 = CARTESIAN_POINT ( 'NONE',  ( -12.69999999999999900, 0.0000000000000000000, 0.0000000000000000000 ) ) ;
#25 = CARTESIAN_POINT ( 'NONE',  ( 0.0000000000000000000, 0.0000000000000000000, 0.0000000000000000000 ) ) ;
#26 = DIRECTION ( 'NONE',  ( 0.0000000000000000000, 0.0000000000000000000, 1.000000000000000000 ) ) ;
#27 = SURFACE_SIDE_STYLE ('',( #28 ) ) ;
#28 = SURFACE_STYLE_FILL_AREA ( #92 ) ;
#29 = AXIS2_PLACEMENT_3D ( 'NONE', #79, #36, #99 ) ;
#30 = MECHANICAL_DESIGN_GEOMETRIC_PRESENTATION_REPRESENTATION (  '', ( #14 ), #34 ) ;
#31 = PRESENTATION_LAYER_ASSIGNMENT (  '', '', ( #122 ) ) ;
#32 = ORIENTED_EDGE ( 'NONE', *, *, #96, .F. ) ;
#33 = ORIENTED_EDGE ( 'NONE', *, *, #96, .T. ) ;
#34 =( GEOMETRIC_REPRESENTATION_CONTEXT ( 3 ) GLOBAL_UNCERTAINTY_ASSIGNED_CONTEXT ( ( #43 ) ) GLOBAL_UNIT_ASSIGNED_CONTEXT ( ( #61, #23, #16 ) ) REPRESENTATION_CONTEXT ( 'NONE', 'WORKASPACE' ) );
#35 = CARTESIAN_POINT ( 'NONE',  ( -12.69999999999999900, 0.0000000000000000000, 5.000000000000000000 ) ) ;
#36 = DIRECTION ( 'NONE',  ( 0.0000000000000000000, 0.0000000000000000000, 1.000000000000000000 ) ) ;
#37 = CARTESIAN_POINT ( 'NONE',  ( -12.69999999999999900, 0.0000000000000000000, 5.000000000000000000 ) ) ;
#38 = DIRECTION ( 'NONE',  ( -0.0000000000000000000, -0.0000000000000000000, -1.000000000000000000 ) ) ;
#39 =( LENGTH_UNIT ( ) NAMED_UNIT ( * ) SI_UNIT ( .MILLI., .METRE. ) );
#40 = APPLICATION_PROTOCOL_DEFINITION ( 'draft international standard', 'automotive_design', 1998, #57 ) ;
#41 = CIRCLE ( 'NONE', #58, 12.69999999999999900 ) ;
#42 = PRODUCT_DEFINITION_CONTEXT ( 'detailed design', #100, 'design' ) ;
#43 = UNCERTAINTY_MEASURE_WITH_UNIT (LENGTH_MEASURE( 1.000000000000000100E-005 ), #61, 'distance_accuracy_value', 'NONE');
#44 = FACE_OUTER_BOUND ( 'NONE', #121, .T. ) ;
#45 = EDGE_CURVE ( 'NONE', #65, #120, #51, .T. ) ;
#46 = EDGE_CURVE ( 'NONE', #65, #95, #1, .T. ) ;
#47 = CIRCLE ( 'NONE', #116, 12.69999999999999900 ) ;
#48 = COLOUR_RGB ( '',1.000000000000000000, 1.000000000000000000, 1.000000000000000000 ) ;
#49 = AXIS2_PLACEMENT_3D ( 'NONE', #101, #26, #102 ) ;
#50 = PRODUCT_DEFINITION_SHAPE ( 'NONE', 'NONE',  #69 ) ;
#51 = CIRCLE ( 'NONE', #135, 12.69999999999999900 ) ;
#52 = DIRECTION ( 'NONE',  ( -0.0000000000000000000, -0.0000000000000000000, -1.000000000000000000 ) ) ;
#53 = CARTESIAN_POINT ( 'NONE',  ( 0.0000000000000000000, 0.0000000000000000000, 5.000000000000000000 ) ) ;
#54 = CYLINDRICAL_SURFACE ( 'NONE', #10, 12.69999999999999900 ) ;
#55 = CARTESIAN_POINT ( 'NONE',  ( 12.69999999999999900, 1.555301434917138400E-015, 5.000000000000000000 ) ) ;
#56 =( NAMED_UNIT ( * ) SI_UNIT ( $, .STERADIAN. ) SOLID_ANGLE_UNIT ( ) );
#57 = APPLICATION_CONTEXT ( 'automotive_design' ) ;
#58 = AXIS2_PLACEMENT_3D ( 'NONE', #5, #17, #82 ) ;
#59 = VECTOR ( 'NONE', #52, 1000.000000000000000 ) ;
#60 = CIRCLE ( 'NONE', #94, 12.69999999999999900 ) ;
#61 =( LENGTH_UNIT ( ) NAMED_UNIT ( * ) SI_UNIT ( .MILLI., .METRE. ) );
#62 = DIRECTION ( 'NONE',  ( 1.000000000000000000, 0.0000000000000000000, 0.0000000000000000000 ) ) ;
#63 = AXIS2_PLACEMENT_3D ( 'NONE', #20, #90, #62 ) ;
#64 = PLANE ( 'NONE',  #49 ) ;
#65 = VERTEX_POINT ( 'NONE', #37 ) ;
#66 =( LENGTH_UNIT ( ) NAMED_UNIT ( * ) SI_UNIT ( .MILLI., .METRE. ) );
#67 = SURFACE_SIDE_STYLE ('',( #105 ) ) ;
#68 = ORIENTED_EDGE ( 'NONE', *, *, #45, .F. ) ;
#69 = PRODUCT_DEFINITION ( 'Î´Öª', '', #76, #42 ) ;
#70 = UNCERTAINTY_MEASURE_WITH_UNIT (LENGTH_MEASURE( 1.000000000000000100E-005 ), #39, 'distance_accuracy_value', 'NONE');
#71 = SHAPE_DEFINITION_REPRESENTATION ( #50, #117 ) ;
#72 = DIRECTION ( 'NONE',  ( 0.0000000000000000000, 0.0000000000000000000, 1.000000000000000000 ) ) ;
#73 = EDGE_LOOP ( 'NONE', ( #8, #104 ) ) ;
#74 = CARTESIAN_POINT ( 'NONE',  ( 0.0000000000000000000, 0.0000000000000000000, 5.000000000000000000 ) ) ;
#75 = EDGE_CURVE ( 'NONE', #95, #128, #60, .T. ) ;
#76 = PRODUCT_DEFINITION_FORMATION_WITH_SPECIFIED_SOURCE ( 'ÈÎºÎ', '', #126, .NOT_KNOWN. ) ;
#77 = COLOUR_RGB ( '',1.000000000000000000, 1.000000000000000000, 1.000000000000000000 ) ;
#78 = ORIENTED_EDGE ( 'NONE', *, *, #118, .F. ) ;
#79 = CARTESIAN_POINT ( 'NONE',  ( 0.0000000000000000000, 0.0000000000000000000, 0.0000000000000000000 ) ) ;
#80 = PRODUCT_RELATED_PRODUCT_CATEGORY ( 'part', '', ( #126 ) ) ;
#81 = PLANE ( 'NONE',  #29 ) ;
#82 = DIRECTION ( 'NONE',  ( 1.000000000000000000, 0.0000000000000000000, 0.0000000000000000000 ) ) ;
#83 = FILL_AREA_STYLE_COLOUR ( '', #77 ) ;
#84 = FILL_AREA_STYLE_COLOUR ( '', #48 ) ;
#85 = CYLINDRICAL_SURFACE ( 'NONE', #108, 12.69999999999999900 ) ;
#86 = ORIENTED_EDGE ( 'NONE', *, *, #110, .F. ) ;
#87 = EDGE_LOOP ( 'NONE', ( #138, #32 ) ) ;
#88 = EDGE_LOOP ( 'NONE', ( #78, #68, #93, #136 ) ) ;
#89 = DIRECTION ( 'NONE',  ( -0.0000000000000000000, -0.0000000000000000000, -1.000000000000000000 ) ) ;
#90 = DIRECTION ( 'NONE',  ( 0.0000000000000000000, 0.0000000000000000000, 1.000000000000000000 ) ) ;
#91 =( NAMED_UNIT ( * ) SI_UNIT ( $, .STERADIAN. ) SOLID_ANGLE_UNIT ( ) );
#92 = FILL_AREA_STYLE ('',( #83 ) ) ;
#93 = ORIENTED_EDGE ( 'NONE', *, *, #46, .T. ) ;
#94 = AXIS2_PLACEMENT_3D ( 'NONE', #25, #15, #22 ) ;
#95 = VERTEX_POINT ( 'NONE', #24 ) ;
#96 = EDGE_CURVE ( 'NONE', #128, #95, #41, .T. ) ;
#97 = PRESENTATION_STYLE_ASSIGNMENT (( #134 ) ) ;
#98 = DIRECTION ( 'NONE',  ( 0.0000000000000000000, 0.0000000000000000000, 1.000000000000000000 ) ) ;
#99 = DIRECTION ( 'NONE',  ( 1.000000000000000000, 0.0000000000000000000, -0.0000000000000000000 ) ) ;
#100 = APPLICATION_CONTEXT ( 'automotive_design' ) ;
#101 = CARTESIAN_POINT ( 'NONE',  ( 0.0000000000000000000, 0.0000000000000000000, 5.000000000000000000 ) ) ;
#102 = DIRECTION ( 'NONE',  ( 1.000000000000000000, 0.0000000000000000000, -0.0000000000000000000 ) ) ;
#103 = SURFACE_STYLE_USAGE ( .BOTH. , #27 ) ;
#104 = ORIENTED_EDGE ( 'NONE', *, *, #110, .T. ) ;
#105 = SURFACE_STYLE_FILL_AREA ( #123 ) ;
#106 = ADVANCED_FACE ( 'NONE', ( #137 ), #64, .T. ) ;
#107 = PRESENTATION_STYLE_ASSIGNMENT (( #103 ) ) ;
#108 = AXIS2_PLACEMENT_3D ( 'NONE', #53, #89, #3 ) ;
#109 = FACE_OUTER_BOUND ( 'NONE', #87, .T. ) ;
#110 = EDGE_CURVE ( 'NONE', #120, #65, #47, .T. ) ;
#111 = VECTOR ( 'NONE', #38, 1000.000000000000000 ) ;
#112 = CARTESIAN_POINT ( 'NONE',  ( 0.0000000000000000000, 0.0000000000000000000, 5.000000000000000000 ) ) ;
#113 = DIRECTION ( 'NONE',  ( 1.000000000000000000, 0.0000000000000000000, 0.0000000000000000000 ) ) ;
#114 = CARTESIAN_POINT ( 'NONE',  ( 12.69999999999999900, 1.555301434917138400E-015, 5.000000000000000000 ) ) ;
#115 =( NAMED_UNIT ( * ) PLANE_ANGLE_UNIT ( ) SI_UNIT ( $, .RADIAN. ) );
#116 = AXIS2_PLACEMENT_3D ( 'NONE', #132, #72, #7 ) ;
#117 = ADVANCED_BREP_SHAPE_REPRESENTATION ( '190135', ( #125, #63 ), #139 ) ;
#118 = EDGE_CURVE ( 'NONE', #120, #128, #13, .T. ) ;
#119 = MECHANICAL_DESIGN_GEOMETRIC_PRESENTATION_REPRESENTATION (  '', ( #122 ), #124 ) ;
#120 = VERTEX_POINT ( 'NONE', #55 ) ;
#121 = EDGE_LOOP ( 'NONE', ( #86, #127, #33, #130 ) ) ;
#122 = STYLED_ITEM ( 'NONE', ( #107 ), #125 ) ;
#123 = FILL_AREA_STYLE ('',( #84 ) ) ;
#124 =( GEOMETRIC_REPRESENTATION_CONTEXT ( 3 ) GLOBAL_UNCERTAINTY_ASSIGNED_CONTEXT ( ( #70 ) ) GLOBAL_UNIT_ASSIGNED_CONTEXT ( ( #39, #115, #56 ) ) REPRESENTATION_CONTEXT ( 'NONE', 'WORKASPACE' ) );
#125 = MANIFOLD_SOLID_BREP ( 'Í¹Ì¨-À­Éì1', #12 ) ;
#126 = PRODUCT ( '190135', '190135', '', ( #129 ) ) ;
#127 = ORIENTED_EDGE ( 'NONE', *, *, #118, .T. ) ;
#128 = VERTEX_POINT ( 'NONE', #19 ) ;
#129 = PRODUCT_CONTEXT ( 'NONE', #57, 'mechanical' ) ;
#130 = ORIENTED_EDGE ( 'NONE', *, *, #46, .F. ) ;
#131 = ADVANCED_FACE ( 'NONE', ( #11 ), #54, .T. ) ;
#132 = CARTESIAN_POINT ( 'NONE',  ( 0.0000000000000000000, 0.0000000000000000000, 5.000000000000000000 ) ) ;
#133 = DIRECTION ( 'NONE',  ( -1.000000000000000000, 0.0000000000000000000, 0.0000000000000000000 ) ) ;
#134 = SURFACE_STYLE_USAGE ( .BOTH. , #67 ) ;
#135 = AXIS2_PLACEMENT_3D ( 'NONE', #112, #98, #113 ) ;
#136 = ORIENTED_EDGE ( 'NONE', *, *, #75, .T. ) ;
#137 = FACE_OUTER_BOUND ( 'NONE', #73, .T. ) ;
#138 = ORIENTED_EDGE ( 'NONE', *, *, #75, .F. ) ;
#139 =( GEOMETRIC_REPRESENTATION_CONTEXT ( 3 ) GLOBAL_UNCERTAINTY_ASSIGNED_CONTEXT ( ( #140 ) ) GLOBAL_UNIT_ASSIGNED_CONTEXT ( ( #66, #18, #91 ) ) REPRESENTATION_CONTEXT ( 'NONE', 'WORKASPACE' ) );
#140 = UNCERTAINTY_MEASURE_WITH_UNIT (LENGTH_MEASURE( 1.000000000000000100E-005 ), #66, 'distance_accuracy_value', 'NONE');
ENDSEC;
END-ISO-10303-21;
