ISO-10303-21;
HEADER;
FILE_DESCRIPTION (( 'STEP AP214' ),
    '1' );
FILE_NAME ('190167.STEP',
    '2019-07-18T08:36:39',
    ( 'user' ),
    ( 'Î¢ÈíÖÐ¹ú' ),
    'SwSTEP 2.0',
    'SolidWorks 2016',
    '' );
FILE_SCHEMA (( 'AUTOMOTIVE_DESIGN' ));
ENDSEC;

DATA;
#1 =( LENGTH_UNIT ( ) NAMED_UNIT ( * ) SI_UNIT ( .MILLI., .METRE. ) );
#2 = AXIS2_PLACEMENT_3D ( 'NONE', #79, #114, #21 ) ;
#3 = CIRCLE ( 'NONE', #2, 20.00000000000000000 ) ;
#4 = PRODUCT_CONTEXT ( 'NONE', #113, 'mechanical' ) ;
#5 = EDGE_LOOP ( 'NONE', ( #66, #131, #42, #64 ) ) ;
#6 = STYLED_ITEM ( 'NONE', ( #8 ), #107 ) ;
#7 = AXIS2_PLACEMENT_3D ( 'NONE', #105, #62, #44 ) ;
#8 = PRESENTATION_STYLE_ASSIGNMENT (( #40 ) ) ;
#9 = DIRECTION ( 'NONE',  ( 1.000000000000000000, 0.0000000000000000000, 0.0000000000000000000 ) ) ;
#10 = DIRECTION ( 'NONE',  ( -0.0000000000000000000, -0.0000000000000000000, -1.000000000000000000 ) ) ;
#11 = ORIENTED_EDGE ( 'NONE', *, *, #82, .F. ) ;
#12 = FILL_AREA_STYLE ('',( #41 ) ) ;
#13 = MECHANICAL_DESIGN_GEOMETRIC_PRESENTATION_REPRESENTATION (  '', ( #6 ), #95 ) ;
#14 = SURFACE_STYLE_FILL_AREA ( #12 ) ;
#15 = DIRECTION ( 'NONE',  ( 0.0000000000000000000, 0.0000000000000000000, 1.000000000000000000 ) ) ;
#16 = APPLICATION_PROTOCOL_DEFINITION ( 'draft international standard', 'automotive_design', 1998, #113 ) ;
#17 = CARTESIAN_POINT ( 'NONE',  ( -20.00000000000000000, 0.0000000000000000000, 2.000000000000000000 ) ) ;
#18 =( NAMED_UNIT ( * ) PLANE_ANGLE_UNIT ( ) SI_UNIT ( $, .RADIAN. ) );
#19 = VERTEX_POINT ( 'NONE', #63 ) ;
#20 = EDGE_CURVE ( 'NONE', #122, #38, #59, .T. ) ;
#21 = DIRECTION ( 'NONE',  ( 1.000000000000000000, 0.0000000000000000000, 0.0000000000000000000 ) ) ;
#22 =( GEOMETRIC_REPRESENTATION_CONTEXT ( 3 ) GLOBAL_UNCERTAINTY_ASSIGNED_CONTEXT ( ( #88 ) ) GLOBAL_UNIT_ASSIGNED_CONTEXT ( ( #1, #96, #26 ) ) REPRESENTATION_CONTEXT ( 'NONE', 'WORKASPACE' ) );
#23 = EDGE_LOOP ( 'NONE', ( #93, #126, #101, #46 ) ) ;
#24 = CARTESIAN_POINT ( 'NONE',  ( 0.0000000000000000000, 0.0000000000000000000, 0.0000000000000000000 ) ) ;
#25 =( GEOMETRIC_REPRESENTATION_CONTEXT ( 3 ) GLOBAL_UNCERTAINTY_ASSIGNED_CONTEXT ( ( #29 ) ) GLOBAL_UNIT_ASSIGNED_CONTEXT ( ( #71, #18, #100 ) ) REPRESENTATION_CONTEXT ( 'NONE', 'WORKASPACE' ) );
#26 =( NAMED_UNIT ( * ) SI_UNIT ( $, .STERADIAN. ) SOLID_ANGLE_UNIT ( ) );
#27 = SURFACE_SIDE_STYLE ('',( #65 ) ) ;
#28 = PLANE ( 'NONE',  #138 ) ;
#29 = UNCERTAINTY_MEASURE_WITH_UNIT (LENGTH_MEASURE( 1.000000000000000100E-005 ), #71, 'distance_accuracy_value', 'NONE');
#30 = CARTESIAN_POINT ( 'NONE',  ( 0.0000000000000000000, 0.0000000000000000000, 2.000000000000000000 ) ) ;
#31 = DIRECTION ( 'NONE',  ( -0.0000000000000000000, -0.0000000000000000000, -1.000000000000000000 ) ) ;
#32 = AXIS2_PLACEMENT_3D ( 'NONE', #24, #97, #9 ) ;
#33 = EDGE_LOOP ( 'NONE', ( #84, #74 ) ) ;
#34 = PRODUCT ( '190167', '190167', '', ( #4 ) ) ;
#35 = VECTOR ( 'NONE', #57, 1000.000000000000000 ) ;
#36 =( LENGTH_UNIT ( ) NAMED_UNIT ( * ) SI_UNIT ( .MILLI., .METRE. ) );
#37 = EDGE_CURVE ( 'NONE', #122, #19, #47, .T. ) ;
#38 = VERTEX_POINT ( 'NONE', #102 ) ;
#39 = CARTESIAN_POINT ( 'NONE',  ( 0.0000000000000000000, 0.0000000000000000000, 0.0000000000000000000 ) ) ;
#40 = SURFACE_STYLE_USAGE ( .BOTH. , #27 ) ;
#41 = FILL_AREA_STYLE_COLOUR ( '', #69 ) ;
#42 = ORIENTED_EDGE ( 'NONE', *, *, #82, .T. ) ;
#43 = DIRECTION ( 'NONE',  ( 0.0000000000000000000, 0.0000000000000000000, 1.000000000000000000 ) ) ;
#44 = DIRECTION ( 'NONE',  ( 1.000000000000000000, 0.0000000000000000000, -0.0000000000000000000 ) ) ;
#45 = SHAPE_DEFINITION_REPRESENTATION ( #81, #107 ) ;
#46 = ORIENTED_EDGE ( 'NONE', *, *, #137, .T. ) ;
#47 = CIRCLE ( 'NONE', #132, 20.00000000000000000 ) ;
#48 = VERTEX_POINT ( 'NONE', #86 ) ;
#49 = ADVANCED_FACE ( 'NONE', ( #90 ), #117, .T. ) ;
#50 = DIRECTION ( 'NONE',  ( -1.000000000000000000, 0.0000000000000000000, 0.0000000000000000000 ) ) ;
#51 = STYLED_ITEM ( 'NONE', ( #53 ), #55 ) ;
#52 = CLOSED_SHELL ( 'NONE', ( #49, #130, #56, #123 ) ) ;
#53 = PRESENTATION_STYLE_ASSIGNMENT (( #94 ) ) ;
#54 =( NAMED_UNIT ( * ) PLANE_ANGLE_UNIT ( ) SI_UNIT ( $, .RADIAN. ) );
#55 = MANIFOLD_SOLID_BREP ( 'Í¹Ì¨-À­Éì1', #52 ) ;
#56 = ADVANCED_FACE ( 'NONE', ( #78 ), #110, .T. ) ;
#57 = DIRECTION ( 'NONE',  ( -0.0000000000000000000, -0.0000000000000000000, -1.000000000000000000 ) ) ;
#58 = DIRECTION ( 'NONE',  ( 1.000000000000000000, 0.0000000000000000000, 0.0000000000000000000 ) ) ;
#59 = LINE ( 'NONE', #17, #35 ) ;
#60 = CARTESIAN_POINT ( 'NONE',  ( 0.0000000000000000000, 0.0000000000000000000, 2.000000000000000000 ) ) ;
#61 = DIRECTION ( 'NONE',  ( 0.0000000000000000000, 0.0000000000000000000, 1.000000000000000000 ) ) ;
#62 = DIRECTION ( 'NONE',  ( 0.0000000000000000000, 0.0000000000000000000, 1.000000000000000000 ) ) ;
#63 = CARTESIAN_POINT ( 'NONE',  ( 20.00000000000000000, 2.449293598294706500E-015, 2.000000000000000000 ) ) ;
#64 = ORIENTED_EDGE ( 'NONE', *, *, #20, .F. ) ;
#65 = SURFACE_STYLE_FILL_AREA ( #115 ) ;
#66 = ORIENTED_EDGE ( 'NONE', *, *, #99, .F. ) ;
#67 = CARTESIAN_POINT ( 'NONE',  ( -20.00000000000000000, 0.0000000000000000000, 2.000000000000000000 ) ) ;
#68 =( NAMED_UNIT ( * ) SI_UNIT ( $, .STERADIAN. ) SOLID_ANGLE_UNIT ( ) );
#69 = COLOUR_RGB ( '',1.000000000000000000, 1.000000000000000000, 1.000000000000000000 ) ;
#70 = APPLICATION_PROTOCOL_DEFINITION ( 'draft international standard', 'automotive_design', 1998, #92 ) ;
#71 =( LENGTH_UNIT ( ) NAMED_UNIT ( * ) SI_UNIT ( .MILLI., .METRE. ) );
#72 = AXIS2_PLACEMENT_3D ( 'NONE', #30, #75, #50 ) ;
#73 = DIRECTION ( 'NONE',  ( 1.000000000000000000, 0.0000000000000000000, 0.0000000000000000000 ) ) ;
#74 = ORIENTED_EDGE ( 'NONE', *, *, #99, .T. ) ;
#75 = DIRECTION ( 'NONE',  ( -0.0000000000000000000, -0.0000000000000000000, -1.000000000000000000 ) ) ;
#76 = ORIENTED_EDGE ( 'NONE', *, *, #137, .F. ) ;
#77 = VECTOR ( 'NONE', #31, 1000.000000000000000 ) ;
#78 = FACE_OUTER_BOUND ( 'NONE', #33, .T. ) ;
#79 = CARTESIAN_POINT ( 'NONE',  ( 0.0000000000000000000, 0.0000000000000000000, 2.000000000000000000 ) ) ;
#80 = EDGE_CURVE ( 'NONE', #19, #48, #87, .T. ) ;
#81 = PRODUCT_DEFINITION_SHAPE ( 'NONE', 'NONE',  #119 ) ;
#82 = EDGE_CURVE ( 'NONE', #48, #38, #85, .T. ) ;
#83 = CARTESIAN_POINT ( 'NONE',  ( 0.0000000000000000000, 0.0000000000000000000, 2.000000000000000000 ) ) ;
#84 = ORIENTED_EDGE ( 'NONE', *, *, #37, .T. ) ;
#85 = CIRCLE ( 'NONE', #89, 20.00000000000000000 ) ;
#86 = CARTESIAN_POINT ( 'NONE',  ( 20.00000000000000000, 2.449293598294706500E-015, 0.0000000000000000000 ) ) ;
#87 = LINE ( 'NONE', #136, #77 ) ;
#88 = UNCERTAINTY_MEASURE_WITH_UNIT (LENGTH_MEASURE( 1.000000000000000100E-005 ), #1, 'distance_accuracy_value', 'NONE');
#89 = AXIS2_PLACEMENT_3D ( 'NONE', #116, #61, #135 ) ;
#90 = FACE_OUTER_BOUND ( 'NONE', #5, .T. ) ;
#91 = PRESENTATION_LAYER_ASSIGNMENT (  '', '', ( #6 ) ) ;
#92 = APPLICATION_CONTEXT ( 'automotive_design' ) ;
#93 = ORIENTED_EDGE ( 'NONE', *, *, #80, .F. ) ;
#94 = SURFACE_STYLE_USAGE ( .BOTH. , #112 ) ;
#95 =( GEOMETRIC_REPRESENTATION_CONTEXT ( 3 ) GLOBAL_UNCERTAINTY_ASSIGNED_CONTEXT ( ( #121 ) ) GLOBAL_UNIT_ASSIGNED_CONTEXT ( ( #36, #54, #68 ) ) REPRESENTATION_CONTEXT ( 'NONE', 'WORKASPACE' ) );
#96 =( NAMED_UNIT ( * ) PLANE_ANGLE_UNIT ( ) SI_UNIT ( $, .RADIAN. ) );
#97 = DIRECTION ( 'NONE',  ( 0.0000000000000000000, 0.0000000000000000000, 1.000000000000000000 ) ) ;
#98 = EDGE_LOOP ( 'NONE', ( #76, #11 ) ) ;
#99 = EDGE_CURVE ( 'NONE', #19, #122, #3, .T. ) ;
#100 =( NAMED_UNIT ( * ) SI_UNIT ( $, .STERADIAN. ) SOLID_ANGLE_UNIT ( ) );
#101 = ORIENTED_EDGE ( 'NONE', *, *, #20, .T. ) ;
#102 = CARTESIAN_POINT ( 'NONE',  ( -20.00000000000000000, 0.0000000000000000000, 0.0000000000000000000 ) ) ;
#103 = FACE_OUTER_BOUND ( 'NONE', #98, .T. ) ;
#104 = PRODUCT_DEFINITION_CONTEXT ( 'detailed design', #92, 'design' ) ;
#105 = CARTESIAN_POINT ( 'NONE',  ( 0.0000000000000000000, 0.0000000000000000000, 2.000000000000000000 ) ) ;
#106 = AXIS2_PLACEMENT_3D ( 'NONE', #83, #10, #118 ) ;
#107 = ADVANCED_BREP_SHAPE_REPRESENTATION ( '190167', ( #55, #109 ), #25 ) ;
#108 = MECHANICAL_DESIGN_GEOMETRIC_PRESENTATION_REPRESENTATION (  '', ( #51 ), #22 ) ;
#109 = AXIS2_PLACEMENT_3D ( 'NONE', #39, #43, #58 ) ;
#110 = PLANE ( 'NONE',  #7 ) ;
#111 = DIRECTION ( 'NONE',  ( 1.000000000000000000, 0.0000000000000000000, -0.0000000000000000000 ) ) ;
#112 = SURFACE_SIDE_STYLE ('',( #14 ) ) ;
#113 = APPLICATION_CONTEXT ( 'automotive_design' ) ;
#114 = DIRECTION ( 'NONE',  ( 0.0000000000000000000, 0.0000000000000000000, 1.000000000000000000 ) ) ;
#115 = FILL_AREA_STYLE ('',( #124 ) ) ;
#116 = CARTESIAN_POINT ( 'NONE',  ( 0.0000000000000000000, 0.0000000000000000000, 0.0000000000000000000 ) ) ;
#117 = CYLINDRICAL_SURFACE ( 'NONE', #72, 20.00000000000000000 ) ;
#118 = DIRECTION ( 'NONE',  ( -1.000000000000000000, 0.0000000000000000000, 0.0000000000000000000 ) ) ;
#119 = PRODUCT_DEFINITION ( 'Î´Öª', '', #128, #104 ) ;
#120 = CIRCLE ( 'NONE', #32, 20.00000000000000000 ) ;
#121 = UNCERTAINTY_MEASURE_WITH_UNIT (LENGTH_MEASURE( 1.000000000000000100E-005 ), #36, 'distance_accuracy_value', 'NONE');
#122 = VERTEX_POINT ( 'NONE', #67 ) ;
#123 = ADVANCED_FACE ( 'NONE', ( #103 ), #28, .F. ) ;
#124 = FILL_AREA_STYLE_COLOUR ( '', #134 ) ;
#125 = DIRECTION ( 'NONE',  ( 0.0000000000000000000, 0.0000000000000000000, 1.000000000000000000 ) ) ;
#126 = ORIENTED_EDGE ( 'NONE', *, *, #37, .F. ) ;
#127 = PRESENTATION_LAYER_ASSIGNMENT (  '', '', ( #51 ) ) ;
#128 = PRODUCT_DEFINITION_FORMATION_WITH_SPECIFIED_SOURCE ( 'ÈÎºÎ', '', #34, .NOT_KNOWN. ) ;
#129 = CARTESIAN_POINT ( 'NONE',  ( 0.0000000000000000000, 0.0000000000000000000, 0.0000000000000000000 ) ) ;
#130 = ADVANCED_FACE ( 'NONE', ( #140 ), #139, .T. ) ;
#131 = ORIENTED_EDGE ( 'NONE', *, *, #80, .T. ) ;
#132 = AXIS2_PLACEMENT_3D ( 'NONE', #60, #125, #73 ) ;
#133 = PRODUCT_RELATED_PRODUCT_CATEGORY ( 'part', '', ( #34 ) ) ;
#134 = COLOUR_RGB ( '',1.000000000000000000, 1.000000000000000000, 1.000000000000000000 ) ;
#135 = DIRECTION ( 'NONE',  ( 1.000000000000000000, 0.0000000000000000000, 0.0000000000000000000 ) ) ;
#136 = CARTESIAN_POINT ( 'NONE',  ( 20.00000000000000000, 2.449293598294706500E-015, 2.000000000000000000 ) ) ;
#137 = EDGE_CURVE ( 'NONE', #38, #48, #120, .T. ) ;
#138 = AXIS2_PLACEMENT_3D ( 'NONE', #129, #15, #111 ) ;
#139 = CYLINDRICAL_SURFACE ( 'NONE', #106, 20.00000000000000000 ) ;
#140 = FACE_OUTER_BOUND ( 'NONE', #23, .T. ) ;
ENDSEC;
END-ISO-10303-21;
