ISO-10303-21;
HEADER;
FILE_DESCRIPTION (( 'STEP AP214' ),
    '1' );
FILE_NAME ('190163.STEP',
    '2019-07-18T08:21:14',
    ( 'user' ),
    ( 'Î¢ÈíÖÐ¹ú' ),
    'SwSTEP 2.0',
    'SolidWorks 2016',
    '' );
FILE_SCHEMA (( 'AUTOMOTIVE_DESIGN' ));
ENDSEC;

DATA;
#1 = FILL_AREA_STYLE ('',( #56 ) ) ;
#2 = EDGE_CURVE ( 'NONE', #22, #6, #23, .T. ) ;
#3 = MANIFOLD_SOLID_BREP ( 'Í¹Ì¨-À­Éì1', #96 ) ;
#4 = ORIENTED_EDGE ( 'NONE', *, *, #9, .F. ) ;
#5 = EDGE_CURVE ( 'NONE', #58, #43, #26, .T. ) ;
#6 = VERTEX_POINT ( 'NONE', #104 ) ;
#7 = EDGE_LOOP ( 'NONE', ( #130, #140, #29, #81 ) ) ;
#8 = AXIS2_PLACEMENT_3D ( 'NONE', #52, #95, #14 ) ;
#9 = EDGE_CURVE ( 'NONE', #43, #22, #137, .T. ) ;
#10 =( LENGTH_UNIT ( ) NAMED_UNIT ( * ) SI_UNIT ( .MILLI., .METRE. ) );
#11 = PRESENTATION_STYLE_ASSIGNMENT (( #93 ) ) ;
#12 = CARTESIAN_POINT ( 'NONE',  ( 0.0000000000000000000, 0.0000000000000000000, 2.000000000000000000 ) ) ;
#13 = ADVANCED_FACE ( 'NONE', ( #16 ), #98, .T. ) ;
#14 = DIRECTION ( 'NONE',  ( 1.000000000000000000, 0.0000000000000000000, -0.0000000000000000000 ) ) ;
#15 = DIRECTION ( 'NONE',  ( 0.0000000000000000000, 0.0000000000000000000, 1.000000000000000000 ) ) ;
#16 = FACE_OUTER_BOUND ( 'NONE', #117, .T. ) ;
#17 = AXIS2_PLACEMENT_3D ( 'NONE', #12, #86, #132 ) ;
#18 = EDGE_LOOP ( 'NONE', ( #20, #89 ) ) ;
#19 = FACE_OUTER_BOUND ( 'NONE', #107, .T. ) ;
#20 = ORIENTED_EDGE ( 'NONE', *, *, #83, .F. ) ;
#21 = SURFACE_SIDE_STYLE ('',( #80 ) ) ;
#22 = VERTEX_POINT ( 'NONE', #42 ) ;
#23 = CIRCLE ( 'NONE', #32, 6.250000000000000000 ) ;
#24 = ADVANCED_FACE ( 'NONE', ( #19 ), #25, .T. ) ;
#25 = PLANE ( 'NONE',  #8 ) ;
#26 = CIRCLE ( 'NONE', #119, 6.250000000000000000 ) ;
#27 = CARTESIAN_POINT ( 'NONE',  ( 6.250000000000000000, 7.654042494670957600E-016, 2.000000000000000000 ) ) ;
#28 = AXIS2_PLACEMENT_3D ( 'NONE', #136, #118, #64 ) ;
#29 = ORIENTED_EDGE ( 'NONE', *, *, #2, .T. ) ;
#30 = UNCERTAINTY_MEASURE_WITH_UNIT (LENGTH_MEASURE( 1.000000000000000100E-005 ), #67, 'distance_accuracy_value', 'NONE');
#31 = ORIENTED_EDGE ( 'NONE', *, *, #76, .T. ) ;
#32 = AXIS2_PLACEMENT_3D ( 'NONE', #35, #44, #88 ) ;
#33 = PRODUCT_DEFINITION_SHAPE ( 'NONE', 'NONE',  #112 ) ;
#34 = AXIS2_PLACEMENT_3D ( 'NONE', #50, #110, #38 ) ;
#35 = CARTESIAN_POINT ( 'NONE',  ( 0.0000000000000000000, 0.0000000000000000000, 0.0000000000000000000 ) ) ;
#36 = ADVANCED_BREP_SHAPE_REPRESENTATION ( '190163', ( #3, #106 ), #54 ) ;
#37 = APPLICATION_CONTEXT ( 'automotive_design' ) ;
#38 = DIRECTION ( 'NONE',  ( 1.000000000000000000, 0.0000000000000000000, 0.0000000000000000000 ) ) ;
#39 = DIRECTION ( 'NONE',  ( -0.0000000000000000000, -0.0000000000000000000, -1.000000000000000000 ) ) ;
#40 = ADVANCED_FACE ( 'NONE', ( #128 ), #126, .F. ) ;
#41 = VECTOR ( 'NONE', #75, 1000.000000000000000 ) ;
#42 = CARTESIAN_POINT ( 'NONE',  ( 6.250000000000000000, 7.654042494670957600E-016, 0.0000000000000000000 ) ) ;
#43 = VERTEX_POINT ( 'NONE', #111 ) ;
#44 = DIRECTION ( 'NONE',  ( 0.0000000000000000000, 0.0000000000000000000, 1.000000000000000000 ) ) ;
#45 = COLOUR_RGB ( '',1.000000000000000000, 1.000000000000000000, 1.000000000000000000 ) ;
#46 = AXIS2_PLACEMENT_3D ( 'NONE', #116, #39, #87 ) ;
#47 = SHAPE_DEFINITION_REPRESENTATION ( #33, #36 ) ;
#48 = APPLICATION_CONTEXT ( 'automotive_design' ) ;
#49 = APPLICATION_PROTOCOL_DEFINITION ( 'draft international standard', 'automotive_design', 1998, #37 ) ;
#50 = CARTESIAN_POINT ( 'NONE',  ( 0.0000000000000000000, 0.0000000000000000000, 0.0000000000000000000 ) ) ;
#51 = CARTESIAN_POINT ( 'NONE',  ( -6.250000000000000000, 0.0000000000000000000, 2.000000000000000000 ) ) ;
#52 = CARTESIAN_POINT ( 'NONE',  ( 0.0000000000000000000, 0.0000000000000000000, 2.000000000000000000 ) ) ;
#53 =( NAMED_UNIT ( * ) SI_UNIT ( $, .STERADIAN. ) SOLID_ANGLE_UNIT ( ) );
#54 =( GEOMETRIC_REPRESENTATION_CONTEXT ( 3 ) GLOBAL_UNCERTAINTY_ASSIGNED_CONTEXT ( ( #55 ) ) GLOBAL_UNIT_ASSIGNED_CONTEXT ( ( #73, #124, #61 ) ) REPRESENTATION_CONTEXT ( 'NONE', 'WORKASPACE' ) );
#55 = UNCERTAINTY_MEASURE_WITH_UNIT (LENGTH_MEASURE( 1.000000000000000100E-005 ), #73, 'distance_accuracy_value', 'NONE');
#56 = FILL_AREA_STYLE_COLOUR ( '', #45 ) ;
#57 = LINE ( 'NONE', #134, #41 ) ;
#58 = VERTEX_POINT ( 'NONE', #51 ) ;
#59 = FACE_OUTER_BOUND ( 'NONE', #7, .T. ) ;
#60 = DIRECTION ( 'NONE',  ( 1.000000000000000000, 0.0000000000000000000, 0.0000000000000000000 ) ) ;
#61 =( NAMED_UNIT ( * ) SI_UNIT ( $, .STERADIAN. ) SOLID_ANGLE_UNIT ( ) );
#62 = FILL_AREA_STYLE_COLOUR ( '', #135 ) ;
#63 = SURFACE_STYLE_FILL_AREA ( #1 ) ;
#64 = DIRECTION ( 'NONE',  ( 1.000000000000000000, 0.0000000000000000000, -0.0000000000000000000 ) ) ;
#65 = PRODUCT_DEFINITION_CONTEXT ( 'detailed design', #48, 'design' ) ;
#66 = CARTESIAN_POINT ( 'NONE',  ( 0.0000000000000000000, 0.0000000000000000000, 2.000000000000000000 ) ) ;
#67 =( LENGTH_UNIT ( ) NAMED_UNIT ( * ) SI_UNIT ( .MILLI., .METRE. ) );
#68 = CIRCLE ( 'NONE', #17, 6.250000000000000000 ) ;
#69 = STYLED_ITEM ( 'NONE', ( #11 ), #36 ) ;
#70 = CIRCLE ( 'NONE', #34, 6.250000000000000000 ) ;
#71 = STYLED_ITEM ( 'NONE', ( #102 ), #3 ) ;
#72 = PRODUCT ( '190163', '190163', '', ( #115 ) ) ;
#73 =( LENGTH_UNIT ( ) NAMED_UNIT ( * ) SI_UNIT ( .MILLI., .METRE. ) );
#74 = ADVANCED_FACE ( 'NONE', ( #59 ), #105, .T. ) ;
#75 = DIRECTION ( 'NONE',  ( -0.0000000000000000000, -0.0000000000000000000, -1.000000000000000000 ) ) ;
#76 = EDGE_CURVE ( 'NONE', #58, #6, #57, .T. ) ;
#77 = SURFACE_SIDE_STYLE ('',( #63 ) ) ;
#78 = PRESENTATION_LAYER_ASSIGNMENT (  '', '', ( #69 ) ) ;
#79 = DIRECTION ( 'NONE',  ( -0.0000000000000000000, -0.0000000000000000000, -1.000000000000000000 ) ) ;
#80 = SURFACE_STYLE_FILL_AREA ( #100 ) ;
#81 = ORIENTED_EDGE ( 'NONE', *, *, #76, .F. ) ;
#82 = ORIENTED_EDGE ( 'NONE', *, *, #99, .T. ) ;
#83 = EDGE_CURVE ( 'NONE', #6, #22, #70, .T. ) ;
#84 = MECHANICAL_DESIGN_GEOMETRIC_PRESENTATION_REPRESENTATION (  '', ( #69 ), #91 ) ;
#85 =( NAMED_UNIT ( * ) PLANE_ANGLE_UNIT ( ) SI_UNIT ( $, .RADIAN. ) );
#86 = DIRECTION ( 'NONE',  ( 0.0000000000000000000, 0.0000000000000000000, 1.000000000000000000 ) ) ;
#87 = DIRECTION ( 'NONE',  ( -1.000000000000000000, 0.0000000000000000000, 0.0000000000000000000 ) ) ;
#88 = DIRECTION ( 'NONE',  ( 1.000000000000000000, 0.0000000000000000000, 0.0000000000000000000 ) ) ;
#89 = ORIENTED_EDGE ( 'NONE', *, *, #2, .F. ) ;
#90 = UNCERTAINTY_MEASURE_WITH_UNIT (LENGTH_MEASURE( 1.000000000000000100E-005 ), #10, 'distance_accuracy_value', 'NONE');
#91 =( GEOMETRIC_REPRESENTATION_CONTEXT ( 3 ) GLOBAL_UNCERTAINTY_ASSIGNED_CONTEXT ( ( #90 ) ) GLOBAL_UNIT_ASSIGNED_CONTEXT ( ( #10, #85, #131 ) ) REPRESENTATION_CONTEXT ( 'NONE', 'WORKASPACE' ) );
#92 = VECTOR ( 'NONE', #127, 1000.000000000000000 ) ;
#93 = SURFACE_STYLE_USAGE ( .BOTH. , #21 ) ;
#94 = CARTESIAN_POINT ( 'NONE',  ( 0.0000000000000000000, 0.0000000000000000000, 0.0000000000000000000 ) ) ;
#95 = DIRECTION ( 'NONE',  ( 0.0000000000000000000, 0.0000000000000000000, 1.000000000000000000 ) ) ;
#96 = CLOSED_SHELL ( 'NONE', ( #74, #13, #24, #40 ) ) ;
#97 = CARTESIAN_POINT ( 'NONE',  ( 0.0000000000000000000, 0.0000000000000000000, 2.000000000000000000 ) ) ;
#98 = CYLINDRICAL_SURFACE ( 'NONE', #139, 6.250000000000000000 ) ;
#99 = EDGE_CURVE ( 'NONE', #43, #58, #68, .T. ) ;
#100 = FILL_AREA_STYLE ('',( #62 ) ) ;
#101 = DIRECTION ( 'NONE',  ( -1.000000000000000000, 0.0000000000000000000, 0.0000000000000000000 ) ) ;
#102 = PRESENTATION_STYLE_ASSIGNMENT (( #129 ) ) ;
#103 = PRESENTATION_LAYER_ASSIGNMENT (  '', '', ( #71 ) ) ;
#104 = CARTESIAN_POINT ( 'NONE',  ( -6.250000000000000000, 0.0000000000000000000, 0.0000000000000000000 ) ) ;
#105 = CYLINDRICAL_SURFACE ( 'NONE', #46, 6.250000000000000000 ) ;
#106 = AXIS2_PLACEMENT_3D ( 'NONE', #94, #123, #60 ) ;
#107 = EDGE_LOOP ( 'NONE', ( #125, #82 ) ) ;
#108 = MECHANICAL_DESIGN_GEOMETRIC_PRESENTATION_REPRESENTATION (  '', ( #71 ), #113 ) ;
#109 = APPLICATION_PROTOCOL_DEFINITION ( 'draft international standard', 'automotive_design', 1998, #48 ) ;
#110 = DIRECTION ( 'NONE',  ( 0.0000000000000000000, 0.0000000000000000000, 1.000000000000000000 ) ) ;
#111 = CARTESIAN_POINT ( 'NONE',  ( 6.250000000000000000, 7.654042494670957600E-016, 2.000000000000000000 ) ) ;
#112 = PRODUCT_DEFINITION ( 'Î´Öª', '', #114, #65 ) ;
#113 =( GEOMETRIC_REPRESENTATION_CONTEXT ( 3 ) GLOBAL_UNCERTAINTY_ASSIGNED_CONTEXT ( ( #30 ) ) GLOBAL_UNIT_ASSIGNED_CONTEXT ( ( #67, #120, #53 ) ) REPRESENTATION_CONTEXT ( 'NONE', 'WORKASPACE' ) );
#114 = PRODUCT_DEFINITION_FORMATION_WITH_SPECIFIED_SOURCE ( 'ÈÎºÎ', '', #72, .NOT_KNOWN. ) ;
#115 = PRODUCT_CONTEXT ( 'NONE', #37, 'mechanical' ) ;
#116 = CARTESIAN_POINT ( 'NONE',  ( 0.0000000000000000000, 0.0000000000000000000, 2.000000000000000000 ) ) ;
#117 = EDGE_LOOP ( 'NONE', ( #4, #121, #31, #133 ) ) ;
#118 = DIRECTION ( 'NONE',  ( 0.0000000000000000000, 0.0000000000000000000, 1.000000000000000000 ) ) ;
#119 = AXIS2_PLACEMENT_3D ( 'NONE', #97, #15, #138 ) ;
#120 =( NAMED_UNIT ( * ) PLANE_ANGLE_UNIT ( ) SI_UNIT ( $, .RADIAN. ) );
#121 = ORIENTED_EDGE ( 'NONE', *, *, #5, .F. ) ;
#122 = PRODUCT_RELATED_PRODUCT_CATEGORY ( 'part', '', ( #72 ) ) ;
#123 = DIRECTION ( 'NONE',  ( 0.0000000000000000000, 0.0000000000000000000, 1.000000000000000000 ) ) ;
#124 =( NAMED_UNIT ( * ) PLANE_ANGLE_UNIT ( ) SI_UNIT ( $, .RADIAN. ) );
#125 = ORIENTED_EDGE ( 'NONE', *, *, #5, .T. ) ;
#126 = PLANE ( 'NONE',  #28 ) ;
#127 = DIRECTION ( 'NONE',  ( -0.0000000000000000000, -0.0000000000000000000, -1.000000000000000000 ) ) ;
#128 = FACE_OUTER_BOUND ( 'NONE', #18, .T. ) ;
#129 = SURFACE_STYLE_USAGE ( .BOTH. , #77 ) ;
#130 = ORIENTED_EDGE ( 'NONE', *, *, #99, .F. ) ;
#131 =( NAMED_UNIT ( * ) SI_UNIT ( $, .STERADIAN. ) SOLID_ANGLE_UNIT ( ) );
#132 = DIRECTION ( 'NONE',  ( 1.000000000000000000, 0.0000000000000000000, 0.0000000000000000000 ) ) ;
#133 = ORIENTED_EDGE ( 'NONE', *, *, #83, .T. ) ;
#134 = CARTESIAN_POINT ( 'NONE',  ( -6.250000000000000000, 0.0000000000000000000, 2.000000000000000000 ) ) ;
#135 = COLOUR_RGB ( '',1.000000000000000000, 1.000000000000000000, 1.000000000000000000 ) ;
#136 = CARTESIAN_POINT ( 'NONE',  ( 0.0000000000000000000, 0.0000000000000000000, 0.0000000000000000000 ) ) ;
#137 = LINE ( 'NONE', #27, #92 ) ;
#138 = DIRECTION ( 'NONE',  ( 1.000000000000000000, 0.0000000000000000000, 0.0000000000000000000 ) ) ;
#139 = AXIS2_PLACEMENT_3D ( 'NONE', #66, #79, #101 ) ;
#140 = ORIENTED_EDGE ( 'NONE', *, *, #9, .T. ) ;
ENDSEC;
END-ISO-10303-21;
