ISO-10303-21;
HEADER;
FILE_DESCRIPTION (( 'STEP AP214' ),
    '1' );
FILE_NAME ('190164.STEP',
    '2019-07-18T08:24:56',
    ( 'user' ),
    ( 'Î¢ÈíÖÐ¹ú' ),
    'SwSTEP 2.0',
    'SolidWorks 2016',
    '' );
FILE_SCHEMA (( 'AUTOMOTIVE_DESIGN' ));
ENDSEC;

DATA;
#1 = PRESENTATION_LAYER_ASSIGNMENT (  '', '', ( #106 ) ) ;
#2 = SURFACE_STYLE_USAGE ( .BOTH. , #83 ) ;
#3 = CARTESIAN_POINT ( 'NONE',  ( 0.0000000000000000000, 0.0000000000000000000, 2.000000000000000000 ) ) ;
#4 = ORIENTED_EDGE ( 'NONE', *, *, #87, .T. ) ;
#5 = PRODUCT_DEFINITION_CONTEXT ( 'detailed design', #137, 'design' ) ;
#6 = ORIENTED_EDGE ( 'NONE', *, *, #65, .T. ) ;
#7 = AXIS2_PLACEMENT_3D ( 'NONE', #98, #23, #90 ) ;
#8 = ORIENTED_EDGE ( 'NONE', *, *, #74, .T. ) ;
#9 = DIRECTION ( 'NONE',  ( 1.000000000000000000, 0.0000000000000000000, 0.0000000000000000000 ) ) ;
#10 =( NAMED_UNIT ( * ) SI_UNIT ( $, .STERADIAN. ) SOLID_ANGLE_UNIT ( ) );
#11 = DIRECTION ( 'NONE',  ( 0.0000000000000000000, 0.0000000000000000000, 1.000000000000000000 ) ) ;
#12 = CARTESIAN_POINT ( 'NONE',  ( 6.349999999999999600, 7.776507174585692200E-016, 2.000000000000000000 ) ) ;
#13 = COLOUR_RGB ( '',1.000000000000000000, 1.000000000000000000, 1.000000000000000000 ) ;
#14 = FILL_AREA_STYLE ('',( #25 ) ) ;
#15 = DIRECTION ( 'NONE',  ( 0.0000000000000000000, 0.0000000000000000000, 1.000000000000000000 ) ) ;
#16 = ORIENTED_EDGE ( 'NONE', *, *, #94, .T. ) ;
#17 = DIRECTION ( 'NONE',  ( 0.0000000000000000000, 0.0000000000000000000, 1.000000000000000000 ) ) ;
#18 = CIRCLE ( 'NONE', #28, 6.349999999999999600 ) ;
#19 = AXIS2_PLACEMENT_3D ( 'NONE', #3, #26, #37 ) ;
#20 = LINE ( 'NONE', #60, #45 ) ;
#21 =( NAMED_UNIT ( * ) SI_UNIT ( $, .STERADIAN. ) SOLID_ANGLE_UNIT ( ) );
#22 =( LENGTH_UNIT ( ) NAMED_UNIT ( * ) SI_UNIT ( .MILLI., .METRE. ) );
#23 = DIRECTION ( 'NONE',  ( 0.0000000000000000000, 0.0000000000000000000, 1.000000000000000000 ) ) ;
#24 = DIRECTION ( 'NONE',  ( 0.0000000000000000000, 0.0000000000000000000, 1.000000000000000000 ) ) ;
#25 = FILL_AREA_STYLE_COLOUR ( '', #52 ) ;
#26 = DIRECTION ( 'NONE',  ( -0.0000000000000000000, -0.0000000000000000000, -1.000000000000000000 ) ) ;
#27 = VERTEX_POINT ( 'NONE', #93 ) ;
#28 = AXIS2_PLACEMENT_3D ( 'NONE', #72, #129, #56 ) ;
#29 = EDGE_LOOP ( 'NONE', ( #39, #8, #80, #46 ) ) ;
#30 =( LENGTH_UNIT ( ) NAMED_UNIT ( * ) SI_UNIT ( .MILLI., .METRE. ) );
#31 = CARTESIAN_POINT ( 'NONE',  ( 0.0000000000000000000, 0.0000000000000000000, 2.000000000000000000 ) ) ;
#32 = PRESENTATION_STYLE_ASSIGNMENT (( #108 ) ) ;
#33 =( GEOMETRIC_REPRESENTATION_CONTEXT ( 3 ) GLOBAL_UNCERTAINTY_ASSIGNED_CONTEXT ( ( #49 ) ) GLOBAL_UNIT_ASSIGNED_CONTEXT ( ( #30, #97, #21 ) ) REPRESENTATION_CONTEXT ( 'NONE', 'WORKASPACE' ) );
#34 = DIRECTION ( 'NONE',  ( -0.0000000000000000000, -0.0000000000000000000, -1.000000000000000000 ) ) ;
#35 = CARTESIAN_POINT ( 'NONE',  ( -6.349999999999999600, 0.0000000000000000000, 2.000000000000000000 ) ) ;
#36 = EDGE_LOOP ( 'NONE', ( #54, #104 ) ) ;
#37 = DIRECTION ( 'NONE',  ( -1.000000000000000000, 0.0000000000000000000, 0.0000000000000000000 ) ) ;
#38 = ADVANCED_FACE ( 'NONE', ( #96 ), #110, .T. ) ;
#39 = ORIENTED_EDGE ( 'NONE', *, *, #65, .F. ) ;
#40 = VERTEX_POINT ( 'NONE', #61 ) ;
#41 = PLANE ( 'NONE',  #111 ) ;
#42 = SURFACE_SIDE_STYLE ('',( #99 ) ) ;
#43 = CARTESIAN_POINT ( 'NONE',  ( 6.349999999999999600, 7.776507174585692200E-016, 0.0000000000000000000 ) ) ;
#44 = DIRECTION ( 'NONE',  ( 1.000000000000000000, 0.0000000000000000000, 0.0000000000000000000 ) ) ;
#45 = VECTOR ( 'NONE', #34, 1000.000000000000000 ) ;
#46 = ORIENTED_EDGE ( 'NONE', *, *, #53, .F. ) ;
#47 = CARTESIAN_POINT ( 'NONE',  ( 0.0000000000000000000, 0.0000000000000000000, 2.000000000000000000 ) ) ;
#48 = MECHANICAL_DESIGN_GEOMETRIC_PRESENTATION_REPRESENTATION (  '', ( #122 ), #33 ) ;
#49 = UNCERTAINTY_MEASURE_WITH_UNIT (LENGTH_MEASURE( 1.000000000000000100E-005 ), #30, 'distance_accuracy_value', 'NONE');
#50 = ADVANCED_FACE ( 'NONE', ( #63 ), #41, .F. ) ;
#51 = ADVANCED_FACE ( 'NONE', ( #67 ), #85, .T. ) ;
#52 = COLOUR_RGB ( '',1.000000000000000000, 1.000000000000000000, 1.000000000000000000 ) ;
#53 = EDGE_CURVE ( 'NONE', #27, #40, #95, .T. ) ;
#54 = ORIENTED_EDGE ( 'NONE', *, *, #94, .F. ) ;
#55 = FILL_AREA_STYLE_COLOUR ( '', #13 ) ;
#56 = DIRECTION ( 'NONE',  ( 1.000000000000000000, 0.0000000000000000000, 0.0000000000000000000 ) ) ;
#57 = CARTESIAN_POINT ( 'NONE',  ( 0.0000000000000000000, 0.0000000000000000000, 0.0000000000000000000 ) ) ;
#58 = PRODUCT_DEFINITION ( 'Î´Öª', '', #101, #5 ) ;
#59 =( NAMED_UNIT ( * ) SI_UNIT ( $, .STERADIAN. ) SOLID_ANGLE_UNIT ( ) );
#60 = CARTESIAN_POINT ( 'NONE',  ( 6.349999999999999600, 7.776507174585692200E-016, 2.000000000000000000 ) ) ;
#61 = CARTESIAN_POINT ( 'NONE',  ( -6.349999999999999600, 0.0000000000000000000, 0.0000000000000000000 ) ) ;
#62 = SHAPE_DEFINITION_REPRESENTATION ( #113, #86 ) ;
#63 = FACE_OUTER_BOUND ( 'NONE', #36, .T. ) ;
#64 = MANIFOLD_SOLID_BREP ( 'Í¹Ì¨-À­Éì1', #69 ) ;
#65 = EDGE_CURVE ( 'NONE', #88, #27, #105, .T. ) ;
#66 = ORIENTED_EDGE ( 'NONE', *, *, #74, .F. ) ;
#67 = FACE_OUTER_BOUND ( 'NONE', #109, .T. ) ;
#68 = AXIS2_PLACEMENT_3D ( 'NONE', #120, #11, #9 ) ;
#69 = CLOSED_SHELL ( 'NONE', ( #134, #51, #38, #50 ) ) ;
#70 = UNCERTAINTY_MEASURE_WITH_UNIT (LENGTH_MEASURE( 1.000000000000000100E-005 ), #22, 'distance_accuracy_value', 'NONE');
#71 = APPLICATION_PROTOCOL_DEFINITION ( 'draft international standard', 'automotive_design', 1998, #137 ) ;
#72 = CARTESIAN_POINT ( 'NONE',  ( 0.0000000000000000000, 0.0000000000000000000, 0.0000000000000000000 ) ) ;
#73 =( LENGTH_UNIT ( ) NAMED_UNIT ( * ) SI_UNIT ( .MILLI., .METRE. ) );
#74 = EDGE_CURVE ( 'NONE', #88, #135, #20, .T. ) ;
#75 = PRODUCT ( '190164', '190164', '', ( #81 ) ) ;
#76 = AXIS2_PLACEMENT_3D ( 'NONE', #31, #140, #82 ) ;
#77 = FACE_OUTER_BOUND ( 'NONE', #29, .T. ) ;
#78 = CIRCLE ( 'NONE', #132, 6.349999999999999600 ) ;
#79 = EDGE_CURVE ( 'NONE', #135, #40, #78, .T. ) ;
#80 = ORIENTED_EDGE ( 'NONE', *, *, #79, .T. ) ;
#81 = PRODUCT_CONTEXT ( 'NONE', #128, 'mechanical' ) ;
#82 = DIRECTION ( 'NONE',  ( -1.000000000000000000, 0.0000000000000000000, 0.0000000000000000000 ) ) ;
#83 = SURFACE_SIDE_STYLE ('',( #139 ) ) ;
#84 = DIRECTION ( 'NONE',  ( 1.000000000000000000, 0.0000000000000000000, -0.0000000000000000000 ) ) ;
#85 = CYLINDRICAL_SURFACE ( 'NONE', #19, 6.349999999999999600 ) ;
#86 = ADVANCED_BREP_SHAPE_REPRESENTATION ( '190164', ( #64, #68 ), #125 ) ;
#87 = EDGE_CURVE ( 'NONE', #27, #88, #130, .T. ) ;
#88 = VERTEX_POINT ( 'NONE', #12 ) ;
#89 =( NAMED_UNIT ( * ) PLANE_ANGLE_UNIT ( ) SI_UNIT ( $, .RADIAN. ) );
#90 = DIRECTION ( 'NONE',  ( 1.000000000000000000, 0.0000000000000000000, 0.0000000000000000000 ) ) ;
#91 = DIRECTION ( 'NONE',  ( 1.000000000000000000, 0.0000000000000000000, 0.0000000000000000000 ) ) ;
#92 = UNCERTAINTY_MEASURE_WITH_UNIT (LENGTH_MEASURE( 1.000000000000000100E-005 ), #73, 'distance_accuracy_value', 'NONE');
#93 = CARTESIAN_POINT ( 'NONE',  ( -6.349999999999999600, 0.0000000000000000000, 2.000000000000000000 ) ) ;
#94 = EDGE_CURVE ( 'NONE', #40, #135, #18, .T. ) ;
#95 = LINE ( 'NONE', #35, #115 ) ;
#96 = FACE_OUTER_BOUND ( 'NONE', #114, .T. ) ;
#97 =( NAMED_UNIT ( * ) PLANE_ANGLE_UNIT ( ) SI_UNIT ( $, .RADIAN. ) );
#98 = CARTESIAN_POINT ( 'NONE',  ( 0.0000000000000000000, 0.0000000000000000000, 2.000000000000000000 ) ) ;
#99 = SURFACE_STYLE_FILL_AREA ( #119 ) ;
#100 = CARTESIAN_POINT ( 'NONE',  ( 0.0000000000000000000, 0.0000000000000000000, 2.000000000000000000 ) ) ;
#101 = PRODUCT_DEFINITION_FORMATION_WITH_SPECIFIED_SOURCE ( 'ÈÎºÎ', '', #75, .NOT_KNOWN. ) ;
#102 = DIRECTION ( 'NONE',  ( -0.0000000000000000000, -0.0000000000000000000, -1.000000000000000000 ) ) ;
#103 = CARTESIAN_POINT ( 'NONE',  ( 0.0000000000000000000, 0.0000000000000000000, 0.0000000000000000000 ) ) ;
#104 = ORIENTED_EDGE ( 'NONE', *, *, #79, .F. ) ;
#105 = CIRCLE ( 'NONE', #136, 6.349999999999999600 ) ;
#106 = STYLED_ITEM ( 'NONE', ( #118 ), #64 ) ;
#107 = PRESENTATION_LAYER_ASSIGNMENT (  '', '', ( #122 ) ) ;
#108 = SURFACE_STYLE_USAGE ( .BOTH. , #42 ) ;
#109 = EDGE_LOOP ( 'NONE', ( #66, #127, #117, #16 ) ) ;
#110 = PLANE ( 'NONE',  #112 ) ;
#111 = AXIS2_PLACEMENT_3D ( 'NONE', #103, #15, #84 ) ;
#112 = AXIS2_PLACEMENT_3D ( 'NONE', #47, #17, #133 ) ;
#113 = PRODUCT_DEFINITION_SHAPE ( 'NONE', 'NONE',  #58 ) ;
#114 = EDGE_LOOP ( 'NONE', ( #4, #6 ) ) ;
#115 = VECTOR ( 'NONE', #102, 1000.000000000000000 ) ;
#116 =( GEOMETRIC_REPRESENTATION_CONTEXT ( 3 ) GLOBAL_UNCERTAINTY_ASSIGNED_CONTEXT ( ( #92 ) ) GLOBAL_UNIT_ASSIGNED_CONTEXT ( ( #73, #131, #59 ) ) REPRESENTATION_CONTEXT ( 'NONE', 'WORKASPACE' ) );
#117 = ORIENTED_EDGE ( 'NONE', *, *, #53, .T. ) ;
#118 = PRESENTATION_STYLE_ASSIGNMENT (( #2 ) ) ;
#119 = FILL_AREA_STYLE ('',( #55 ) ) ;
#120 = CARTESIAN_POINT ( 'NONE',  ( 0.0000000000000000000, 0.0000000000000000000, 0.0000000000000000000 ) ) ;
#121 = DIRECTION ( 'NONE',  ( 0.0000000000000000000, 0.0000000000000000000, 1.000000000000000000 ) ) ;
#122 = STYLED_ITEM ( 'NONE', ( #32 ), #86 ) ;
#123 = CYLINDRICAL_SURFACE ( 'NONE', #76, 6.349999999999999600 ) ;
#124 = MECHANICAL_DESIGN_GEOMETRIC_PRESENTATION_REPRESENTATION (  '', ( #106 ), #116 ) ;
#125 =( GEOMETRIC_REPRESENTATION_CONTEXT ( 3 ) GLOBAL_UNCERTAINTY_ASSIGNED_CONTEXT ( ( #70 ) ) GLOBAL_UNIT_ASSIGNED_CONTEXT ( ( #22, #89, #10 ) ) REPRESENTATION_CONTEXT ( 'NONE', 'WORKASPACE' ) );
#126 = PRODUCT_RELATED_PRODUCT_CATEGORY ( 'part', '', ( #75 ) ) ;
#127 = ORIENTED_EDGE ( 'NONE', *, *, #87, .F. ) ;
#128 = APPLICATION_CONTEXT ( 'automotive_design' ) ;
#129 = DIRECTION ( 'NONE',  ( 0.0000000000000000000, 0.0000000000000000000, 1.000000000000000000 ) ) ;
#130 = CIRCLE ( 'NONE', #7, 6.349999999999999600 ) ;
#131 =( NAMED_UNIT ( * ) PLANE_ANGLE_UNIT ( ) SI_UNIT ( $, .RADIAN. ) );
#132 = AXIS2_PLACEMENT_3D ( 'NONE', #57, #121, #44 ) ;
#133 = DIRECTION ( 'NONE',  ( 1.000000000000000000, 0.0000000000000000000, -0.0000000000000000000 ) ) ;
#134 = ADVANCED_FACE ( 'NONE', ( #77 ), #123, .T. ) ;
#135 = VERTEX_POINT ( 'NONE', #43 ) ;
#136 = AXIS2_PLACEMENT_3D ( 'NONE', #100, #24, #91 ) ;
#137 = APPLICATION_CONTEXT ( 'automotive_design' ) ;
#138 = APPLICATION_PROTOCOL_DEFINITION ( 'draft international standard', 'automotive_design', 1998, #128 ) ;
#139 = SURFACE_STYLE_FILL_AREA ( #14 ) ;
#140 = DIRECTION ( 'NONE',  ( -0.0000000000000000000, -0.0000000000000000000, -1.000000000000000000 ) ) ;
ENDSEC;
END-ISO-10303-21;
