ISO-10303-21;
HEADER;
FILE_DESCRIPTION (( 'STEP AP214' ),
    '1' );
FILE_NAME ('197545.STEP',
    '2019-07-23T05:58:45',
    ( 'user' ),
    ( 'Î¢ÈíÖÐ¹ú' ),
    'SwSTEP 2.0',
    'SolidWorks 2016',
    '' );
FILE_SCHEMA (( 'AUTOMOTIVE_DESIGN' ));
ENDSEC;

DATA;
#1 =( BOUNDED_SURFACE ( )  B_SPLINE_SURFACE ( 3, 1, ( 
 ( #80, #60 ),
 ( #21, #81 ),
 ( #116, #57 ),
 ( #134, #149 ),
 ( #84, #102 ),
 ( #45, #129 ),
 ( #151, #5 ) ),
 .UNSPECIFIED., .T., .F., .T. ) 
 B_SPLINE_SURFACE_WITH_KNOTS ( ( 4, 3, 4 ),
 ( 2, 2 ),
 ( 0.0000000000000000000, 0.5000000000000000000, 1.000000000000000000 ),
 ( 0.0000000000000000000, 1.000000000000000000 ),
 .UNSPECIFIED. ) 
 GEOMETRIC_REPRESENTATION_ITEM ( )  RATIONAL_B_SPLINE_SURFACE ( (
 ( 1.000000000000000000, 1.000000000000000000),
 ( 0.3333333333333333700, 0.3333333333333333700),
 ( 0.3333333333333333700, 0.3333333333333333700),
 ( 1.000000000000000000, 1.000000000000000000),
 ( 0.3333333333333333700, 0.3333333333333333700),
 ( 0.3333333333333333700, 0.3333333333333333700),
 ( 1.000000000000000000, 1.000000000000000000) ) ) 
 REPRESENTATION_ITEM ( '' )  SURFACE ( )  );
#2 = ORIENTED_EDGE ( 'NONE', *, *, #148, .T. ) ;
#3 =( NAMED_UNIT ( * ) PLANE_ANGLE_UNIT ( ) SI_UNIT ( $, .RADIAN. ) );
#4 = PLANE ( 'NONE',  #133 ) ;
#5 = CARTESIAN_POINT ( 'NONE',  ( 2.464757358724617300E-015, -2.000000000000004000, -17.03228406952659300 ) ) ;
#6 = APPLICATION_CONTEXT ( 'automotive_design' ) ;
#7 = CARTESIAN_POINT ( 'NONE',  ( -3.444474798042499700E-015, 0.0000000000000000000, 14.11500000000000200 ) ) ;
#8 = CARTESIAN_POINT ( 'NONE',  ( 2.464757358724617300E-015, -2.000000000000004000, -17.03228406952659300 ) ) ;
#9 = DIRECTION ( 'NONE',  ( 0.0000000000000000000, 1.000000000000000000, 0.0000000000000000000 ) ) ;
#10 = MECHANICAL_DESIGN_GEOMETRIC_PRESENTATION_REPRESENTATION (  '', ( #14 ), #112 ) ;
#11 = VERTEX_POINT ( 'NONE', #36 ) ;
#12 = ADVANCED_FACE ( 'NONE', ( #38 ), #131, .F. ) ;
#13 = SHAPE_DEFINITION_REPRESENTATION ( #113, #49 ) ;
#14 = STYLED_ITEM ( 'NONE', ( #64 ), #72 ) ;
#15 = CARTESIAN_POINT ( 'NONE',  ( 2.464757358724617300E-015, 0.0000000000000000000, -14.11500000000000200 ) ) ;
#16 = CARTESIAN_POINT ( 'NONE',  ( -15.99999999999999300, -2.000000000000004000, -17.03228406952660000 ) ) ;
#17 = CARTESIAN_POINT ( 'NONE',  ( -3.444474798042499700E-015, 0.0000000000000000000, 14.11500000000000200 ) ) ;
#18 = CARTESIAN_POINT ( 'NONE',  ( 2.464757358724617300E-015, -2.000000000000004900, -17.03228406952659300 ) ) ;
#19 = FACE_OUTER_BOUND ( 'NONE', #28, .T. ) ;
#20 = CARTESIAN_POINT ( 'NONE',  ( -16.00000000000000000, -2.000000000000004000, 11.19771593047340200 ) ) ;
#21 = CARTESIAN_POINT ( 'NONE',  ( -15.99999999999999300, 0.0000000000000000000, -14.11500000000000700 ) ) ;
#22 = PRODUCT_DEFINITION_FORMATION_WITH_SPECIFIED_SOURCE ( 'ÈÎºÎ', '', #145, .NOT_KNOWN. ) ;
#23 = PRODUCT_DEFINITION_CONTEXT ( 'detailed design', #106, 'design' ) ;
#24 = EDGE_CURVE ( 'NONE', #158, #66, #26, .T. ) ;
#25 = EDGE_LOOP ( 'NONE', ( #54, #67 ) ) ;
#26 =( BOUNDED_CURVE ( )  B_SPLINE_CURVE ( 3, ( #92, #34, #150, #15 ),
 .UNSPECIFIED., .F., .T. ) 
 B_SPLINE_CURVE_WITH_KNOTS ( ( 4, 4 ),
 ( 3.141592653589793100, 6.283185307179586200 ),
 .UNSPECIFIED. ) 
 CURVE ( )  GEOMETRIC_REPRESENTATION_ITEM ( )  RATIONAL_B_SPLINE_CURVE ( ( 1.000000000000000000, 0.3333333333333333700, 0.3333333333333333700, 1.000000000000000000 ) ) 
 REPRESENTATION_ITEM ( '' )  );
#27 = PRESENTATION_LAYER_ASSIGNMENT (  '', '', ( #14 ) ) ;
#28 = EDGE_LOOP ( 'NONE', ( #104, #87, #141, #46 ) ) ;
#29 = PRODUCT_DEFINITION ( 'Î´Öª', '', #22, #23 ) ;
#30 = CARTESIAN_POINT ( 'NONE',  ( 16.00000000000000000, 0.0000000000000000000, -14.11499999999999800 ) ) ;
#31 = CARTESIAN_POINT ( 'NONE',  ( 2.464757358724617300E-015, 0.0000000000000000000, -14.11500000000000200 ) ) ;
#32 = CARTESIAN_POINT ( 'NONE',  ( -16.00000000000000000, 0.0000000000000000000, 14.11499999999999700 ) ) ;
#33 = CARTESIAN_POINT ( 'NONE',  ( 2.464757358724617300E-015, -2.000000000000004000, -17.03228406952659300 ) ) ;
#34 = CARTESIAN_POINT ( 'NONE',  ( 15.99999999999999300, 0.0000000000000000000, 14.11500000000000900 ) ) ;
#35 = AXIS2_PLACEMENT_3D ( 'NONE', #75, #132, #39 ) ;
#36 = CARTESIAN_POINT ( 'NONE',  ( 2.464757358724617300E-015, -2.000000000000004900, -17.03228406952659300 ) ) ;
#37 = PRODUCT_CONTEXT ( 'NONE', #6, 'mechanical' ) ;
#38 = FACE_OUTER_BOUND ( 'NONE', #25, .T. ) ;
#39 = DIRECTION ( 'NONE',  ( 1.000000000000000000, 0.0000000000000000000, 0.0000000000000000000 ) ) ;
#40 = CARTESIAN_POINT ( 'NONE',  ( 2.464757358724617300E-015, 0.0000000000000000000, -14.11500000000000200 ) ) ;
#41 = SURFACE_STYLE_FILL_AREA ( #79 ) ;
#42 = UNCERTAINTY_MEASURE_WITH_UNIT (LENGTH_MEASURE( 1.000000000000000100E-005 ), #43, 'distance_accuracy_value', 'NONE');
#43 =( LENGTH_UNIT ( ) NAMED_UNIT ( * ) SI_UNIT ( .MILLI., .METRE. ) );
#44 = FILL_AREA_STYLE_COLOUR ( '', #143 ) ;
#45 = CARTESIAN_POINT ( 'NONE',  ( 16.00000000000000000, 0.0000000000000000000, -14.11499999999999800 ) ) ;
#46 = ORIENTED_EDGE ( 'NONE', *, *, #157, .T. ) ;
#47 = CARTESIAN_POINT ( 'NONE',  ( -3.444474798042499700E-015, -2.000000000000004900, 11.19771593047340900 ) ) ;
#48 = FILL_AREA_STYLE_COLOUR ( '', #103 ) ;
#49 = ADVANCED_BREP_SHAPE_REPRESENTATION ( '197545', ( #72, #35 ), #86 ) ;
#50 = SURFACE_SIDE_STYLE ('',( #41 ) ) ;
#51 = SURFACE_STYLE_USAGE ( .BOTH. , #137 ) ;
#52 =( GEOMETRIC_REPRESENTATION_CONTEXT ( 3 ) GLOBAL_UNCERTAINTY_ASSIGNED_CONTEXT ( ( #121 ) ) GLOBAL_UNIT_ASSIGNED_CONTEXT ( ( #117, #61, #100 ) ) REPRESENTATION_CONTEXT ( 'NONE', 'WORKASPACE' ) );
#53 = CARTESIAN_POINT ( 'NONE',  ( 16.00000000000000000, -2.000000000000004900, -17.03228406952659000 ) ) ;
#54 = ORIENTED_EDGE ( 'NONE', *, *, #157, .F. ) ;
#55 = STYLED_ITEM ( 'NONE', ( #109 ), #49 ) ;
#56 = CARTESIAN_POINT ( 'NONE',  ( -15.99999999999999300, 0.0000000000000000000, -14.11500000000000700 ) ) ;
#57 = CARTESIAN_POINT ( 'NONE',  ( -16.00000000000000000, -2.000000000000004000, 11.19771593047340200 ) ) ;
#58 =( NAMED_UNIT ( * ) PLANE_ANGLE_UNIT ( ) SI_UNIT ( $, .RADIAN. ) );
#59 = CARTESIAN_POINT ( 'NONE',  ( 15.99999999999999300, 0.0000000000000000000, 14.11500000000000900 ) ) ;
#60 = CARTESIAN_POINT ( 'NONE',  ( 2.464757358724617300E-015, -2.000000000000004000, -17.03228406952659300 ) ) ;
#61 =( NAMED_UNIT ( * ) PLANE_ANGLE_UNIT ( ) SI_UNIT ( $, .RADIAN. ) );
#62 = EDGE_CURVE ( 'NONE', #66, #11, #146, .T. ) ;
#63 = CARTESIAN_POINT ( 'NONE',  ( 15.99999999999999300, -2.000000000000004900, 11.19771593047341600 ) ) ;
#64 = PRESENTATION_STYLE_ASSIGNMENT (( #93 ) ) ;
#65 = APPLICATION_PROTOCOL_DEFINITION ( 'draft international standard', 'automotive_design', 1998, #6 ) ;
#66 = VERTEX_POINT ( 'NONE', #77 ) ;
#67 = ORIENTED_EDGE ( 'NONE', *, *, #153, .F. ) ;
#68 = CARTESIAN_POINT ( 'NONE',  ( -3.444474798042499700E-015, -2.000000000000004900, 11.19771593047340900 ) ) ;
#69 =( LENGTH_UNIT ( ) NAMED_UNIT ( * ) SI_UNIT ( .MILLI., .METRE. ) );
#70 = CARTESIAN_POINT ( 'NONE',  ( 2.464757358724617300E-015, -2.000000000000004900, -17.03228406952659300 ) ) ;
#71 = ORIENTED_EDGE ( 'NONE', *, *, #127, .T. ) ;
#72 = MANIFOLD_SOLID_BREP ( 'É¨Ãè1', #128 ) ;
#73 = EDGE_LOOP ( 'NONE', ( #2, #98 ) ) ;
#74 = ADVANCED_FACE ( 'NONE', ( #105 ), #126, .F. ) ;
#75 = CARTESIAN_POINT ( 'NONE',  ( 0.0000000000000000000, 0.0000000000000000000, 0.0000000000000000000 ) ) ;
#76 = FACE_OUTER_BOUND ( 'NONE', #73, .T. ) ;
#77 = CARTESIAN_POINT ( 'NONE',  ( 2.464757358724617300E-015, 0.0000000000000000000, -14.11500000000000200 ) ) ;
#78 = FILL_AREA_STYLE ('',( #48 ) ) ;
#79 = FILL_AREA_STYLE ('',( #44 ) ) ;
#80 = CARTESIAN_POINT ( 'NONE',  ( 2.464757358724617300E-015, 0.0000000000000000000, -14.11500000000000200 ) ) ;
#81 = CARTESIAN_POINT ( 'NONE',  ( -15.99999999999999300, -2.000000000000004000, -17.03228406952660000 ) ) ;
#82 = CARTESIAN_POINT ( 'NONE',  ( -16.00000000000000000, 0.0000000000000000000, 14.11499999999999700 ) ) ;
#83 = CARTESIAN_POINT ( 'NONE',  ( -3.444474798042499700E-015, -2.000000000000004900, 11.19771593047340900 ) ) ;
#84 = CARTESIAN_POINT ( 'NONE',  ( 15.99999999999999300, 0.0000000000000000000, 14.11500000000000900 ) ) ;
#85 = CARTESIAN_POINT ( 'NONE',  ( -15.99999999999999300, -2.000000000000004900, -17.03228406952659700 ) ) ;
#86 =( GEOMETRIC_REPRESENTATION_CONTEXT ( 3 ) GLOBAL_UNCERTAINTY_ASSIGNED_CONTEXT ( ( #42 ) ) GLOBAL_UNIT_ASSIGNED_CONTEXT ( ( #43, #3, #90 ) ) REPRESENTATION_CONTEXT ( 'NONE', 'WORKASPACE' ) );
#87 = ORIENTED_EDGE ( 'NONE', *, *, #148, .F. ) ;
#88 = MECHANICAL_DESIGN_GEOMETRIC_PRESENTATION_REPRESENTATION (  '', ( #55 ), #52 ) ;
#89 = APPLICATION_PROTOCOL_DEFINITION ( 'draft international standard', 'automotive_design', 1998, #106 ) ;
#90 =( NAMED_UNIT ( * ) SI_UNIT ( $, .STERADIAN. ) SOLID_ANGLE_UNIT ( ) );
#91 =( BOUNDED_CURVE ( )  B_SPLINE_CURVE ( 3, ( #68, #63, #53, #70 ),
 .UNSPECIFIED., .F., .F. ) 
 B_SPLINE_CURVE_WITH_KNOTS ( ( 4, 4 ),
 ( 3.141592653589793100, 6.283185307179586200 ),
 .UNSPECIFIED. ) 
 CURVE ( )  GEOMETRIC_REPRESENTATION_ITEM ( )  RATIONAL_B_SPLINE_CURVE ( ( 1.000000000000000000, 0.3333333333333333700, 0.3333333333333333700, 1.000000000000000000 ) ) 
 REPRESENTATION_ITEM ( '' )  );
#92 = CARTESIAN_POINT ( 'NONE',  ( -3.444474798042499700E-015, 0.0000000000000000000, 14.11500000000000200 ) ) ;
#93 = SURFACE_STYLE_USAGE ( .BOTH. , #50 ) ;
#94 =( NAMED_UNIT ( * ) SI_UNIT ( $, .STERADIAN. ) SOLID_ANGLE_UNIT ( ) );
#95 = PRESENTATION_LAYER_ASSIGNMENT (  '', '', ( #55 ) ) ;
#96 = CARTESIAN_POINT ( 'NONE',  ( -3.444474798042499700E-015, 0.0000000000000000000, 14.11500000000000200 ) ) ;
#97 = ORIENTED_EDGE ( 'NONE', *, *, #24, .F. ) ;
#98 = ORIENTED_EDGE ( 'NONE', *, *, #24, .T. ) ;
#99 = DIRECTION ( 'NONE',  ( 0.0000000000000000000, 0.0000000000000000000, 1.000000000000000000 ) ) ;
#100 =( NAMED_UNIT ( * ) SI_UNIT ( $, .STERADIAN. ) SOLID_ANGLE_UNIT ( ) );
#101 = ORIENTED_EDGE ( 'NONE', *, *, #153, .T. ) ;
#102 = CARTESIAN_POINT ( 'NONE',  ( 15.99999999999999300, -2.000000000000004000, 11.19771593047341400 ) ) ;
#103 = COLOUR_RGB ( '',1.000000000000000000, 1.000000000000000000, 1.000000000000000000 ) ;
#104 = ORIENTED_EDGE ( 'NONE', *, *, #127, .F. ) ;
#105 = FACE_OUTER_BOUND ( 'NONE', #136, .T. ) ;
#106 = APPLICATION_CONTEXT ( 'automotive_design' ) ;
#107 = CARTESIAN_POINT ( 'NONE',  ( 0.0000000000000000000, 0.0000000000000000000, 0.0000000000000000000 ) ) ;
#108 = ADVANCED_FACE ( 'NONE', ( #19 ), #1, .F. ) ;
#109 = PRESENTATION_STYLE_ASSIGNMENT (( #51 ) ) ;
#110 = B_SPLINE_CURVE_WITH_KNOTS ( 'NONE', 1,
 ( #7, #142 ),
 .UNSPECIFIED., .F., .F.,
 ( 2, 2 ),
 ( 0.0000000000000000000, 1.000000000000000000 ),
 .UNSPECIFIED. ) ;
#111 = VERTEX_POINT ( 'NONE', #47 ) ;
#112 =( GEOMETRIC_REPRESENTATION_CONTEXT ( 3 ) GLOBAL_UNCERTAINTY_ASSIGNED_CONTEXT ( ( #155 ) ) GLOBAL_UNIT_ASSIGNED_CONTEXT ( ( #69, #58, #94 ) ) REPRESENTATION_CONTEXT ( 'NONE', 'WORKASPACE' ) );
#113 = PRODUCT_DEFINITION_SHAPE ( 'NONE', 'NONE',  #29 ) ;
#114 = DIRECTION ( 'NONE',  ( 0.0000000000000000000, 1.000000000000000000, 0.0000000000000000000 ) ) ;
#115 = CARTESIAN_POINT ( 'NONE',  ( -3.444474798042499700E-015, 0.0000000000000000000, 14.11500000000000200 ) ) ;
#116 = CARTESIAN_POINT ( 'NONE',  ( -16.00000000000000000, 0.0000000000000000000, 14.11499999999999700 ) ) ;
#117 =( LENGTH_UNIT ( ) NAMED_UNIT ( * ) SI_UNIT ( .MILLI., .METRE. ) );
#118 = CARTESIAN_POINT ( 'NONE',  ( -15.99999999999999300, 0.0000000000000000000, -14.11500000000000700 ) ) ;
#119 = CARTESIAN_POINT ( 'NONE',  ( 2.464757358724617300E-015, 0.0000000000000000000, -14.11500000000000200 ) ) ;
#120 = DIRECTION ( 'NONE',  ( 0.0000000000000000000, -0.0000000000000000000, 1.000000000000000000 ) ) ;
#121 = UNCERTAINTY_MEASURE_WITH_UNIT (LENGTH_MEASURE( 1.000000000000000100E-005 ), #117, 'distance_accuracy_value', 'NONE');
#122 = CARTESIAN_POINT ( 'NONE',  ( -3.444474798042499700E-015, -2.000000000000004000, 11.19771593047340900 ) ) ;
#123 = ORIENTED_EDGE ( 'NONE', *, *, #62, .F. ) ;
#124 = ADVANCED_FACE ( 'NONE', ( #76 ), #4, .T. ) ;
#125 = SURFACE_STYLE_FILL_AREA ( #78 ) ;
#126 =( BOUNDED_SURFACE ( )  B_SPLINE_SURFACE ( 3, 1, ( 
 ( #31, #33 ),
 ( #118, #16 ),
 ( #32, #20 ),
 ( #17, #122 ),
 ( #59, #144 ),
 ( #30, #130 ),
 ( #40, #8 ) ),
 .UNSPECIFIED., .T., .F., .T. ) 
 B_SPLINE_SURFACE_WITH_KNOTS ( ( 4, 3, 4 ),
 ( 2, 2 ),
 ( 0.0000000000000000000, 0.5000000000000000000, 1.000000000000000000 ),
 ( 0.0000000000000000000, 1.000000000000000000 ),
 .UNSPECIFIED. ) 
 GEOMETRIC_REPRESENTATION_ITEM ( )  RATIONAL_B_SPLINE_SURFACE ( (
 ( 1.000000000000000000, 1.000000000000000000),
 ( 0.3333333333333333700, 0.3333333333333333700),
 ( 0.3333333333333333700, 0.3333333333333333700),
 ( 1.000000000000000000, 1.000000000000000000),
 ( 0.3333333333333333700, 0.3333333333333333700),
 ( 0.3333333333333333700, 0.3333333333333333700),
 ( 1.000000000000000000, 1.000000000000000000) ) ) 
 REPRESENTATION_ITEM ( '' )  SURFACE ( )  );
#127 = EDGE_CURVE ( 'NONE', #158, #111, #110, .T. ) ;
#128 = CLOSED_SHELL ( 'NONE', ( #74, #108, #12, #124 ) ) ;
#129 = CARTESIAN_POINT ( 'NONE',  ( 16.00000000000000000, -2.000000000000004000, -17.03228406952659000 ) ) ;
#130 = CARTESIAN_POINT ( 'NONE',  ( 16.00000000000000000, -2.000000000000004000, -17.03228406952659000 ) ) ;
#131 = PLANE ( 'NONE',  #138 ) ;
#132 = DIRECTION ( 'NONE',  ( 0.0000000000000000000, 0.0000000000000000000, 1.000000000000000000 ) ) ;
#133 = AXIS2_PLACEMENT_3D ( 'NONE', #107, #9, #120 ) ;
#134 = CARTESIAN_POINT ( 'NONE',  ( -3.444474798042499700E-015, 0.0000000000000000000, 14.11500000000000200 ) ) ;
#135 = PRODUCT_RELATED_PRODUCT_CATEGORY ( 'part', '', ( #145 ) ) ;
#136 = EDGE_LOOP ( 'NONE', ( #97, #71, #101, #123 ) ) ;
#137 = SURFACE_SIDE_STYLE ('',( #125 ) ) ;
#138 = AXIS2_PLACEMENT_3D ( 'NONE', #139, #114, #99 ) ;
#139 = CARTESIAN_POINT ( 'NONE',  ( 0.0000000000000000000, -2.000000000000004900, -2.917284069526593800 ) ) ;
#140 =( BOUNDED_CURVE ( )  B_SPLINE_CURVE ( 3, ( #154, #56, #82, #96 ),
 .UNSPECIFIED., .F., .F. ) 
 B_SPLINE_CURVE_WITH_KNOTS ( ( 4, 4 ),
 ( 0.0000000000000000000, 3.141592653589793100 ),
 .UNSPECIFIED. ) 
 CURVE ( )  GEOMETRIC_REPRESENTATION_ITEM ( )  RATIONAL_B_SPLINE_CURVE ( ( 1.000000000000000000, 0.3333333333333333700, 0.3333333333333333700, 1.000000000000000000 ) ) 
 REPRESENTATION_ITEM ( '' )  );
#141 = ORIENTED_EDGE ( 'NONE', *, *, #62, .T. ) ;
#142 = CARTESIAN_POINT ( 'NONE',  ( -3.444474798042499700E-015, -2.000000000000004900, 11.19771593047340900 ) ) ;
#143 = COLOUR_RGB ( '',1.000000000000000000, 1.000000000000000000, 1.000000000000000000 ) ;
#144 = CARTESIAN_POINT ( 'NONE',  ( 15.99999999999999300, -2.000000000000004000, 11.19771593047341400 ) ) ;
#145 = PRODUCT ( '197545', '197545', '', ( #37 ) ) ;
#146 = B_SPLINE_CURVE_WITH_KNOTS ( 'NONE', 1,
 ( #119, #18 ),
 .UNSPECIFIED., .F., .F.,
 ( 2, 2 ),
 ( 0.0000000000000000000, 1.000000000000000000 ),
 .UNSPECIFIED. ) ;
#147 =( BOUNDED_CURVE ( )  B_SPLINE_CURVE ( 3, ( #156, #85, #152, #83 ),
 .UNSPECIFIED., .F., .F. ) 
 B_SPLINE_CURVE_WITH_KNOTS ( ( 4, 4 ),
 ( 0.0000000000000000000, 3.141592653589793100 ),
 .UNSPECIFIED. ) 
 CURVE ( )  GEOMETRIC_REPRESENTATION_ITEM ( )  RATIONAL_B_SPLINE_CURVE ( ( 1.000000000000000000, 0.3333333333333333700, 0.3333333333333333700, 1.000000000000000000 ) ) 
 REPRESENTATION_ITEM ( '' )  );
#148 = EDGE_CURVE ( 'NONE', #66, #158, #140, .T. ) ;
#149 = CARTESIAN_POINT ( 'NONE',  ( -3.444474798042499700E-015, -2.000000000000004000, 11.19771593047340900 ) ) ;
#150 = CARTESIAN_POINT ( 'NONE',  ( 16.00000000000000000, 0.0000000000000000000, -14.11499999999999800 ) ) ;
#151 = CARTESIAN_POINT ( 'NONE',  ( 2.464757358724617300E-015, 0.0000000000000000000, -14.11500000000000200 ) ) ;
#152 = CARTESIAN_POINT ( 'NONE',  ( -16.00000000000000000, -2.000000000000004900, 11.19771593047340200 ) ) ;
#153 = EDGE_CURVE ( 'NONE', #111, #11, #91, .T. ) ;
#154 = CARTESIAN_POINT ( 'NONE',  ( 2.464757358724617300E-015, 0.0000000000000000000, -14.11500000000000200 ) ) ;
#155 = UNCERTAINTY_MEASURE_WITH_UNIT (LENGTH_MEASURE( 1.000000000000000100E-005 ), #69, 'distance_accuracy_value', 'NONE');
#156 = CARTESIAN_POINT ( 'NONE',  ( 2.464757358724617300E-015, -2.000000000000004900, -17.03228406952659300 ) ) ;
#157 = EDGE_CURVE ( 'NONE', #11, #111, #147, .T. ) ;
#158 = VERTEX_POINT ( 'NONE', #115 ) ;
ENDSEC;
END-ISO-10303-21;
