ISO-10303-21;
HEADER;
FILE_DESCRIPTION (( 'STEP AP203' ),
    '1' );
FILE_NAME ('Web Model 65826.STEP',
    '2017-01-31T19:19:28',
    ( '' ),
    ( '' ),
    'SwSTEP 2.0',
    'SolidWorks 2016',
    '' );
FILE_SCHEMA (( 'CONFIG_CONTROL_DESIGN' ));
ENDSEC;

DATA;
#1 = CARTESIAN_POINT ( 'NONE',  ( -0.9999999999999974500, 19.14376738225929100, 1.224646799147353300E-015 ) ) ;
#2 = ADVANCED_FACE ( 'NONE', ( #47 ), #79, .T. ) ;
#3 = APPROVAL_STATUS ( 'not_yet_approved' ) ;
#4 = APPROVAL_ROLE ( '' ) ;
#5 = EDGE_CURVE ( 'NONE', #170, #55, #104, .T. ) ;
#6 = ADVANCED_FACE ( 'NONE', ( #116 ), #121, .T. ) ;
#7 = PRODUCT_DEFINITION ( 'UNKNOWN', '', #72, #105 ) ;
#8 = CC_DESIGN_APPROVAL ( #150, ( #35 ) ) ;
#9 = LINE ( 'NONE', #13, #141 ) ;
#10 = ORIENTED_EDGE ( 'NONE', *, *, #26, .T. ) ;
#11 = CC_DESIGN_PERSON_AND_ORGANIZATION_ASSIGNMENT ( #113, #30, ( #35 ) ) ;
#12 = DIRECTION ( 'NONE',  ( -0.0000000000000000000, 0.0000000000000000000, 1.000000000000000000 ) ) ;
#13 = CARTESIAN_POINT ( 'NONE',  ( 20.02450022635006700, -46.89370310270778900, 0.0000000000000000000 ) ) ;
#14 = APPLICATION_CONTEXT ( 'configuration controlled 3d designs of mechanical parts and assemblies' ) ;
#15 = CARTESIAN_POINT ( 'NONE',  ( 0.9999999999999976700, 16.22648331274000800, -19.99999999999999600 ) ) ;
#16 = PERSON_AND_ORGANIZATION_ROLE ( 'design_supplier' ) ;
#17 = ADVANCED_FACE ( 'NONE', ( #122 ), #173, .T. ) ;
#18 = FACE_OUTER_BOUND ( 'NONE', #169, .T. ) ;
#19 = ORIENTED_EDGE ( 'NONE', *, *, #103, .T. ) ;
#20 = ORIENTED_EDGE ( 'NONE', *, *, #5, .T. ) ;
#21 = APPROVAL ( #58, 'UNSPECIFIED' ) ;
#22 =( BOUNDED_CURVE ( )  B_SPLINE_CURVE ( 3, ( #28, #147, #82, #42 ),
 .UNSPECIFIED., .F., .F. ) 
 B_SPLINE_CURVE_WITH_KNOTS ( ( 4, 4 ),
 ( 0.0000000000000000000, 3.141592653589793100 ),
 .UNSPECIFIED. ) 
 CURVE ( )  GEOMETRIC_REPRESENTATION_ITEM ( )  RATIONAL_B_SPLINE_CURVE ( ( 1.000000000000000000, 0.3333333333333333700, 0.3333333333333333700, 1.000000000000000000 ) ) 
 REPRESENTATION_ITEM ( '' )  );
#23 = PERSON_AND_ORGANIZATION ( #67, #83 ) ;
#24 = DIRECTION ( 'NONE',  ( -0.5654469393633004800, 0.8247846741814957000, -0.0000000000000000000 ) ) ;
#25 = CARTESIAN_POINT ( 'NONE',  ( -0.9999999999999975600, -16.22648331274001500, 19.99999999999999600 ) ) ;
#26 = EDGE_CURVE ( 'NONE', #165, #61, #119, .T. ) ;
#27 = CARTESIAN_POINT ( 'NONE',  ( 0.0000000000000000000, 0.0000000000000000000, 0.0000000000000000000 ) ) ;
#28 = CARTESIAN_POINT ( 'NONE',  ( -0.9999999999999974500, 19.14376738225929100, 1.224646799147353300E-015 ) ) ;
#29 = CARTESIAN_POINT ( 'NONE',  ( 1.000000000000000900, 16.22648331274000800, 1.224646799147353300E-015 ) ) ;
#30 = PERSON_AND_ORGANIZATION_ROLE ( 'classification_officer' ) ;
#31 = CC_DESIGN_SECURITY_CLASSIFICATION ( #35, ( #72 ) ) ;
#32 = PERSON_AND_ORGANIZATION ( #67, #83 ) ;
#33 = APPROVAL_DATE_TIME ( #64, #150 ) ;
#34 = DATE_AND_TIME ( #140, #60 ) ;
#35 = SECURITY_CLASSIFICATION ( '', '', #101 ) ;
#36 = ORIENTED_EDGE ( 'NONE', *, *, #171, .F. ) ;
#37 = DATE_AND_TIME ( #90, #172 ) ;
#38 = APPROVAL_DATE_TIME ( #37, #21 ) ;
#39 = PERSON_AND_ORGANIZATION ( #67, #83 ) ;
#40 = DIRECTION ( 'NONE',  ( -0.8247846741814957000, -0.5654469393633003700, 0.0000000000000000000 ) ) ;
#41 = CC_DESIGN_APPROVAL ( #21, ( #7 ) ) ;
#42 = CARTESIAN_POINT ( 'NONE',  ( -0.9999999999999974500, -16.22648331274000500, 0.0000000000000000000 ) ) ;
#43 = CARTESIAN_POINT ( 'NONE',  ( 1.000000000000004400, -19.14376738225928800, 0.0000000000000000000 ) ) ;
#44 = ORIENTED_EDGE ( 'NONE', *, *, #5, .F. ) ;
#45 = PERSON_AND_ORGANIZATION_ROLE ( 'design_owner' ) ;
#46 = DATE_TIME_ROLE ( 'classification_date' ) ;
#47 = FACE_OUTER_BOUND ( 'NONE', #52, .T. ) ;
#48 = AXIS2_PLACEMENT_3D ( 'NONE', #54, #75, #167 ) ;
#49 =( GEOMETRIC_REPRESENTATION_CONTEXT ( 3 ) GLOBAL_UNCERTAINTY_ASSIGNED_CONTEXT ( ( #153 ) ) GLOBAL_UNIT_ASSIGNED_CONTEXT ( ( #143, #128, #99 ) ) REPRESENTATION_CONTEXT ( 'NONE', 'WORKASPACE' ) );
#50 = APPROVAL_PERSON_ORGANIZATION ( #88, #21, #57 ) ;
#51 = CC_DESIGN_PERSON_AND_ORGANIZATION_ASSIGNMENT ( #161, #158, ( #7 ) ) ;
#52 = EDGE_LOOP ( 'NONE', ( #87, #92, #139, #36 ) ) ;
#53 = APPROVAL_PERSON_ORGANIZATION ( #152, #150, #4 ) ;
#54 = CARTESIAN_POINT ( 'NONE',  ( 0.9999999999999945600, 16.22648331274001900, -10.00000000000000000 ) ) ;
#55 = VERTEX_POINT ( 'NONE', #1 ) ;
#56 = CARTESIAN_POINT ( 'NONE',  ( 0.9999999999999976700, 16.22648331274000500, 19.99999999999999600 ) ) ;
#57 = APPROVAL_ROLE ( '' ) ;
#58 = APPROVAL_STATUS ( 'not_yet_approved' ) ;
#59 = CC_DESIGN_DATE_AND_TIME_ASSIGNMENT ( #145, #159, ( #7 ) ) ;
#60 = LOCAL_TIME ( 14, 19, 28.00000000000000000, #102 ) ;
#61 = VERTEX_POINT ( 'NONE', #43 ) ;
#62 = LOCAL_TIME ( 14, 19, 28.00000000000000000, #117 ) ;
#63 = CARTESIAN_POINT ( 'NONE',  ( -0.9999999999999974500, -16.22648331274000500, 0.0000000000000000000 ) ) ;
#64 = DATE_AND_TIME ( #73, #166 ) ;
#65 = CARTESIAN_POINT ( 'NONE',  ( -0.9999999999999975600, 19.14376738225928100, 19.99999999999999600 ) ) ;
#66 = EDGE_LOOP ( 'NONE', ( #20, #133 ) ) ;
#67 = PERSON ( 'UNSPECIFIED', 'UNSPECIFIED', 'UNSPECIFIED', ('UNSPECIFIED'), ('UNSPECIFIED'), ('UNSPECIFIED') ) ;
#68 = DIRECTION ( 'NONE',  ( -0.5654469393633004800, 0.8247846741814957000, -0.0000000000000000000 ) ) ;
#69 = APPROVAL_PERSON_ORGANIZATION ( #39, #124, #162 ) ;
#70 = ADVANCED_FACE ( 'NONE', ( #18 ), #85, .T. ) ;
#71 = AXIS2_PLACEMENT_3D ( 'NONE', #96, #168, #12 ) ;
#72 = PRODUCT_DEFINITION_FORMATION_WITH_SPECIFIED_SOURCE ( 'ANY', '', #110, .NOT_KNOWN. ) ;
#73 = CALENDAR_DATE ( 2017, 31, 1 ) ;
#74 = LOCAL_TIME ( 14, 19, 28.00000000000000000, #89 ) ;
#75 = DIRECTION ( 'NONE',  ( 1.000000000000000000, 1.839176400248907700E-016, 0.0000000000000000000 ) ) ;
#76 = AXIS2_PLACEMENT_3D ( 'NONE', #93, #24, #100 ) ;
#77 = EDGE_CURVE ( 'NONE', #61, #170, #9, .T. ) ;
#78 = CC_DESIGN_DATE_AND_TIME_ASSIGNMENT ( #97, #46, ( #35 ) ) ;
#79 = CYLINDRICAL_SURFACE ( 'NONE', #130, 10.00000000000000000 ) ;
#80 = APPLICATION_PROTOCOL_DEFINITION ( 'international standard', 'config_control_design', 1994, #14 ) ;
#81 = DIRECTION ( 'NONE',  ( 1.000000000000000000, 0.0000000000000000000, 0.0000000000000000000 ) ) ;
#82 = CARTESIAN_POINT ( 'NONE',  ( -0.9999999999999975600, -16.22648331274000800, -19.99999999999999600 ) ) ;
#83 = ORGANIZATION ( 'UNSPECIFIED', 'UNSPECIFIED', '' ) ;
#84 = APPROVAL_STATUS ( 'not_yet_approved' ) ;
#85 = CYLINDRICAL_SURFACE ( 'NONE', #76, 10.00000000000000000 ) ;
#86 =( BOUNDED_CURVE ( )  B_SPLINE_CURVE ( 3, ( #154, #115, #15, #174 ),
 .UNSPECIFIED., .F., .F. ) 
 B_SPLINE_CURVE_WITH_KNOTS ( ( 4, 4 ),
 ( 3.141592653589793100, 6.283185307179586200 ),
 .UNSPECIFIED. ) 
 CURVE ( )  GEOMETRIC_REPRESENTATION_ITEM ( )  RATIONAL_B_SPLINE_CURVE ( ( 1.000000000000000000, 0.3333333333333333700, 0.3333333333333333700, 1.000000000000000000 ) ) 
 REPRESENTATION_ITEM ( '' )  );
#87 = ORIENTED_EDGE ( 'NONE', *, *, #129, .F. ) ;
#88 = PERSON_AND_ORGANIZATION ( #67, #83 ) ;
#89 = COORDINATED_UNIVERSAL_TIME_OFFSET ( 5, 0, .BEHIND. ) ;
#90 = CALENDAR_DATE ( 2017, 31, 1 ) ;
#91 = PRODUCT_RELATED_PRODUCT_CATEGORY ( 'detail', '', ( #110 ) ) ;
#92 = ORIENTED_EDGE ( 'NONE', *, *, #103, .F. ) ;
#93 = CARTESIAN_POINT ( 'NONE',  ( 28.27234696816502400, -41.23923370907478200, 0.0000000000000000000 ) ) ;
#94 = CARTESIAN_POINT ( 'NONE',  ( 28.27234696816502400, -41.23923370907478200, 0.0000000000000000000 ) ) ;
#95 = CLOSED_SHELL ( 'NONE', ( #70, #2, #17, #6 ) ) ;
#96 = CARTESIAN_POINT ( 'NONE',  ( -0.9999999999999988900, 19.14376738225928800, -10.00000000000000000 ) ) ;
#97 = DATE_AND_TIME ( #160, #62 ) ;
#98 = CC_DESIGN_APPROVAL ( #124, ( #72 ) ) ;
#99 =( NAMED_UNIT ( * ) SI_UNIT ( $, .STERADIAN. ) SOLID_ANGLE_UNIT ( ) );
#100 = DIRECTION ( 'NONE',  ( -0.8247846741814957000, -0.5654469393633003700, 0.0000000000000000000 ) ) ;
#101 = SECURITY_CLASSIFICATION_LEVEL ( 'unclassified' ) ;
#102 = COORDINATED_UNIVERSAL_TIME_OFFSET ( 5, 0, .BEHIND. ) ;
#103 = EDGE_CURVE ( 'NONE', #61, #165, #86, .T. ) ;
#104 =( BOUNDED_CURVE ( )  B_SPLINE_CURVE ( 3, ( #63, #25, #65, #155 ),
 .UNSPECIFIED., .F., .T. ) 
 B_SPLINE_CURVE_WITH_KNOTS ( ( 4, 4 ),
 ( 3.141592653589793100, 6.283185307179586200 ),
 .UNSPECIFIED. ) 
 CURVE ( )  GEOMETRIC_REPRESENTATION_ITEM ( )  RATIONAL_B_SPLINE_CURVE ( ( 1.000000000000000000, 0.3333333333333333700, 0.3333333333333333700, 1.000000000000000000 ) ) 
 REPRESENTATION_ITEM ( '' )  );
#105 = DESIGN_CONTEXT ( 'detailed design', #14, 'design' ) ;
#106 = CALENDAR_DATE ( 2017, 31, 1 ) ;
#107 = CC_DESIGN_PERSON_AND_ORGANIZATION_ASSIGNMENT ( #120, #137, ( #72 ) ) ;
#108 = LINE ( 'NONE', #123, #164 ) ;
#109 = AXIS2_PLACEMENT_3D ( 'NONE', #27, #114, #81 ) ;
#110 = PRODUCT ( 'Web Model 65826', 'Web Model 65826', '', ( #148 ) ) ;
#111 = COORDINATED_UNIVERSAL_TIME_OFFSET ( 5, 0, .BEHIND. ) ;
#112 = APPROVAL_DATE_TIME ( #34, #124 ) ;
#113 = PERSON_AND_ORGANIZATION ( #67, #83 ) ;
#114 = DIRECTION ( 'NONE',  ( 0.0000000000000000000, 0.0000000000000000000, 1.000000000000000000 ) ) ;
#115 = CARTESIAN_POINT ( 'NONE',  ( 1.000000000000004200, -19.14376738225929500, -19.99999999999999600 ) ) ;
#116 = FACE_OUTER_BOUND ( 'NONE', #66, .T. ) ;
#117 = COORDINATED_UNIVERSAL_TIME_OFFSET ( 5, 0, .BEHIND. ) ;
#118 = COORDINATED_UNIVERSAL_TIME_OFFSET ( 5, 0, .BEHIND. ) ;
#119 =( BOUNDED_CURVE ( )  B_SPLINE_CURVE ( 3, ( #29, #56, #144, #135 ),
 .UNSPECIFIED., .F., .F. ) 
 B_SPLINE_CURVE_WITH_KNOTS ( ( 4, 4 ),
 ( 1.224646799147353200E-016, 3.141592653589793100 ),
 .UNSPECIFIED. ) 
 CURVE ( )  GEOMETRIC_REPRESENTATION_ITEM ( )  RATIONAL_B_SPLINE_CURVE ( ( 1.000000000000000000, 0.3333333333333333700, 0.3333333333333333700, 1.000000000000000000 ) ) 
 REPRESENTATION_ITEM ( '' )  );
#120 = PERSON_AND_ORGANIZATION ( #67, #83 ) ;
#121 = PLANE ( 'NONE',  #71 ) ;
#122 = FACE_OUTER_BOUND ( 'NONE', #151, .T. ) ;
#123 = CARTESIAN_POINT ( 'NONE',  ( 36.52019370997998500, -35.58476431544178100, 1.224646799147353300E-015 ) ) ;
#124 = APPROVAL ( #3, 'UNSPECIFIED' ) ;
#125 = DIRECTION ( 'NONE',  ( -0.5654469393633004800, 0.8247846741814957000, -0.0000000000000000000 ) ) ;
#126 = APPLICATION_PROTOCOL_DEFINITION ( 'international standard', 'config_control_design', 1994, #157 ) ;
#127 = PRODUCT_DEFINITION_SHAPE ( 'NONE', 'NONE',  #7 ) ;
#128 =( NAMED_UNIT ( * ) PLANE_ANGLE_UNIT ( ) SI_UNIT ( $, .RADIAN. ) );
#129 = EDGE_CURVE ( 'NONE', #165, #55, #108, .T. ) ;
#130 = AXIS2_PLACEMENT_3D ( 'NONE', #94, #156, #40 ) ;
#131 = CC_DESIGN_PERSON_AND_ORGANIZATION_ASSIGNMENT ( #23, #16, ( #72 ) ) ;
#132 = MANIFOLD_SOLID_BREP ( 'Cut-Extrude1', #95 ) ;
#133 = ORIENTED_EDGE ( 'NONE', *, *, #171, .T. ) ;
#134 = CC_DESIGN_PERSON_AND_ORGANIZATION_ASSIGNMENT ( #32, #45, ( #110 ) ) ;
#135 = CARTESIAN_POINT ( 'NONE',  ( 1.000000000000004400, -19.14376738225928800, 0.0000000000000000000 ) ) ;
#136 = CARTESIAN_POINT ( 'NONE',  ( -0.9999999999999974500, -16.22648331274000500, 0.0000000000000000000 ) ) ;
#137 = PERSON_AND_ORGANIZATION_ROLE ( 'creator' ) ;
#138 = ADVANCED_BREP_SHAPE_REPRESENTATION ( 'Web Model 65826', ( #132, #109 ), #49 ) ;
#139 = ORIENTED_EDGE ( 'NONE', *, *, #77, .T. ) ;
#140 = CALENDAR_DATE ( 2017, 31, 1 ) ;
#141 = VECTOR ( 'NONE', #125, 1000.000000000000000 ) ;
#142 = ORIENTED_EDGE ( 'NONE', *, *, #129, .T. ) ;
#143 =( LENGTH_UNIT ( ) NAMED_UNIT ( * ) SI_UNIT ( .MILLI., .METRE. ) );
#144 = CARTESIAN_POINT ( 'NONE',  ( 1.000000000000004200, -19.14376738225928400, 19.99999999999999600 ) ) ;
#145 = DATE_AND_TIME ( #106, #74 ) ;
#146 = CARTESIAN_POINT ( 'NONE',  ( 1.000000000000000900, 16.22648331274000800, 1.224646799147353300E-015 ) ) ;
#147 = CARTESIAN_POINT ( 'NONE',  ( -0.9999999999999975600, 19.14376738225928100, -19.99999999999999600 ) ) ;
#148 = MECHANICAL_CONTEXT ( 'NONE', #157, 'mechanical' ) ;
#149 = ORIENTED_EDGE ( 'NONE', *, *, #26, .F. ) ;
#150 = APPROVAL ( #84, 'UNSPECIFIED' ) ;
#151 = EDGE_LOOP ( 'NONE', ( #19, #10 ) ) ;
#152 = PERSON_AND_ORGANIZATION ( #67, #83 ) ;
#153 = UNCERTAINTY_MEASURE_WITH_UNIT (LENGTH_MEASURE( 1.000000000000000100E-005 ), #143, 'distance_accuracy_value', 'NONE');
#154 = CARTESIAN_POINT ( 'NONE',  ( 1.000000000000004400, -19.14376738225928800, 0.0000000000000000000 ) ) ;
#155 = CARTESIAN_POINT ( 'NONE',  ( -0.9999999999999974500, 19.14376738225929100, 1.224646799147353300E-015 ) ) ;
#156 = DIRECTION ( 'NONE',  ( -0.5654469393633004800, 0.8247846741814957000, -0.0000000000000000000 ) ) ;
#157 = APPLICATION_CONTEXT ( 'configuration controlled 3d designs of mechanical parts and assemblies' ) ;
#158 = PERSON_AND_ORGANIZATION_ROLE ( 'creator' ) ;
#159 = DATE_TIME_ROLE ( 'creation_date' ) ;
#160 = CALENDAR_DATE ( 2017, 31, 1 ) ;
#161 = PERSON_AND_ORGANIZATION ( #67, #83 ) ;
#162 = APPROVAL_ROLE ( '' ) ;
#163 = SHAPE_DEFINITION_REPRESENTATION ( #127, #138 ) ;
#164 = VECTOR ( 'NONE', #68, 1000.000000000000000 ) ;
#165 = VERTEX_POINT ( 'NONE', #146 ) ;
#166 = LOCAL_TIME ( 14, 19, 28.00000000000000000, #118 ) ;
#167 = DIRECTION ( 'NONE',  ( -1.839176400248907700E-016, 1.000000000000000000, 0.0000000000000000000 ) ) ;
#168 = DIRECTION ( 'NONE',  ( -1.000000000000000000, 0.0000000000000000000, -0.0000000000000000000 ) ) ;
#169 = EDGE_LOOP ( 'NONE', ( #149, #142, #44, #175 ) ) ;
#170 = VERTEX_POINT ( 'NONE', #136 ) ;
#171 = EDGE_CURVE ( 'NONE', #55, #170, #22, .T. ) ;
#172 = LOCAL_TIME ( 14, 19, 28.00000000000000000, #111 ) ;
#173 = PLANE ( 'NONE',  #48 ) ;
#174 = CARTESIAN_POINT ( 'NONE',  ( 1.000000000000000900, 16.22648331274000800, 1.224646799147353300E-015 ) ) ;
#175 = ORIENTED_EDGE ( 'NONE', *, *, #77, .F. ) ;
ENDSEC;
END-ISO-10303-21;
