ISO-10303-21;
HEADER;
FILE_DESCRIPTION (( 'STEP AP214' ),
    '1' );
FILE_NAME ('197506.STEP',
    '2019-07-08T07:03:22',
    ( 'user' ),
    ( 'Î¢ÈíÖÐ¹ú' ),
    'SwSTEP 2.0',
    'SolidWorks 2016',
    '' );
FILE_SCHEMA (( 'AUTOMOTIVE_DESIGN' ));
ENDSEC;

DATA;
#1 = PRESENTATION_LAYER_ASSIGNMENT (  '', '', ( #21 ) ) ;
#2 = ORIENTED_EDGE ( 'NONE', *, *, #51, .T. ) ;
#3 = UNCERTAINTY_MEASURE_WITH_UNIT (LENGTH_MEASURE( 1.000000000000000100E-005 ), #138, 'distance_accuracy_value', 'NONE');
#4 = ORIENTED_EDGE ( 'NONE', *, *, #133, .F. ) ;
#5 = SURFACE_STYLE_USAGE ( .BOTH. , #39 ) ;
#6 = CARTESIAN_POINT ( 'NONE',  ( 9.556675116229813600, 25.40000000000000200, 25.40000000000000200 ) ) ;
#7 = CARTESIAN_POINT ( 'NONE',  ( 10.00000000000000000, 1.224646799147353300E-015, 25.39999999999999900 ) ) ;
#8 = ORIENTED_EDGE ( 'NONE', *, *, #106, .F. ) ;
#9 = PRODUCT_RELATED_PRODUCT_CATEGORY ( 'part', '', ( #24 ) ) ;
#10 = AXIS2_PLACEMENT_3D ( 'NONE', #7, #82, #99 ) ;
#11 = DIRECTION ( 'NONE',  ( -1.000000000000000000, -1.224646799147353500E-016, 2.465190328815661900E-032 ) ) ;
#12 = DIRECTION ( 'NONE',  ( 1.000000000000000000, 0.0000000000000000000, 0.0000000000000000000 ) ) ;
#13 = CARTESIAN_POINT ( 'NONE',  ( 9.556675116229813600, 25.40000000000000200, 25.40000000000000200 ) ) ;
#14 = FILL_AREA_STYLE ('',( #55 ) ) ;
#15 = PRODUCT_CONTEXT ( 'NONE', #69, 'mechanical' ) ;
#16 = APPLICATION_CONTEXT ( 'automotive_design' ) ;
#17 = CARTESIAN_POINT ( 'NONE',  ( 10.00000000000000500, -25.40000000000000900, 76.19999999999998900 ) ) ;
#18 = EDGE_LOOP ( 'NONE', ( #78, #2, #137, #45 ) ) ;
#19 = EDGE_LOOP ( 'NONE', ( #102, #25 ) ) ;
#20 = CARTESIAN_POINT ( 'NONE',  ( -3.110602869834278000E-015, 25.40000000000000200, 25.40000000000000200 ) ) ;
#21 = STYLED_ITEM ( 'NONE', ( #116 ), #40 ) ;
#22 = CIRCLE ( 'NONE', #61, 25.40000000000000200 ) ;
#23 = CARTESIAN_POINT ( 'NONE',  ( 10.00000000000000700, -25.40000000000000200, 50.79999999999999700 ) ) ;
#24 = PRODUCT ( '197506', '197506', '', ( #15 ) ) ;
#25 = ORIENTED_EDGE ( 'NONE', *, *, #133, .T. ) ;
#26 =( GEOMETRIC_REPRESENTATION_CONTEXT ( 3 ) GLOBAL_UNCERTAINTY_ASSIGNED_CONTEXT ( ( #125 ) ) GLOBAL_UNIT_ASSIGNED_CONTEXT ( ( #96, #105, #76 ) ) REPRESENTATION_CONTEXT ( 'NONE', 'WORKASPACE' ) );
#27 = VERTEX_POINT ( 'NONE', #119 ) ;
#28 = FILL_AREA_STYLE ('',( #94 ) ) ;
#29 = CARTESIAN_POINT ( 'NONE',  ( 10.00000000000000700, -25.40000000000000200, 25.39999999999999900 ) ) ;
#30 = PRODUCT_DEFINITION ( 'Î´Öª', '', #41, #92 ) ;
#31 = CARTESIAN_POINT ( 'NONE',  ( 10.00000000000000400, -25.40000000000000200, 25.39999999999999900 ) ) ;
#32 = CLOSED_SHELL ( 'NONE', ( #132, #36, #135, #104 ) ) ;
#33 = PLANE ( 'NONE',  #136 ) ;
#34 = CARTESIAN_POINT ( 'NONE',  ( 0.0000000000000000000, -3.761581922631320000E-034, 25.39999999999999900 ) ) ;
#35 = CYLINDRICAL_SURFACE ( 'NONE', #10, 25.40000000000000200 ) ;
#36 = ADVANCED_FACE ( 'NONE', ( #131 ), #98, .F. ) ;
#37 = CARTESIAN_POINT ( 'NONE',  ( 9.556675116229813600, 25.39999999999999900, 76.20000000000001700 ) ) ;
#38 = SHAPE_DEFINITION_REPRESENTATION ( #66, #60 ) ;
#39 = SURFACE_SIDE_STYLE ('',( #107 ) ) ;
#40 = MANIFOLD_SOLID_BREP ( 'ÇÐ³ý-À­Éì1', #32 ) ;
#41 = PRODUCT_DEFINITION_FORMATION_WITH_SPECIFIED_SOURCE ( 'ÈÎºÎ', '', #24, .NOT_KNOWN. ) ;
#42 = CARTESIAN_POINT ( 'NONE',  ( 3.110602869834278000E-015, -25.40000000000000200, 25.39999999999999900 ) ) ;
#43 = CARTESIAN_POINT ( 'NONE',  ( 0.0000000000000000000, -3.761581922631320000E-034, 25.39999999999999900 ) ) ;
#44 = ORIENTED_EDGE ( 'NONE', *, *, #51, .F. ) ;
#45 = ORIENTED_EDGE ( 'NONE', *, *, #84, .F. ) ;
#46 = DIRECTION ( 'NONE',  ( -1.000000000000000000, -1.224646799147353500E-016, 2.465190328815661900E-032 ) ) ;
#47 = DIRECTION ( 'NONE',  ( 1.224646799147353500E-016, -1.000000000000000000, 0.0000000000000000000 ) ) ;
#48 = FACE_OUTER_BOUND ( 'NONE', #134, .T. ) ;
#49 = DIRECTION ( 'NONE',  ( -0.9999619230641714200, -0.008726535498366969800, 0.0000000000000000000 ) ) ;
#50 = CARTESIAN_POINT ( 'NONE',  ( 7.176881642386742500E-016, 25.39999999999999500, 50.79999999999999700 ) ) ;
#51 = EDGE_CURVE ( 'NONE', #120, #54, #62, .T. ) ;
#52 = CARTESIAN_POINT ( 'NONE',  ( 9.999999999999996400, 25.40000000000000200, 25.40000000000000200 ) ) ;
#53 = DIRECTION ( 'NONE',  ( 0.008726535498366969800, -0.9999619230641714200, 0.0000000000000000000 ) ) ;
#54 = VERTEX_POINT ( 'NONE', #20 ) ;
#55 = FILL_AREA_STYLE_COLOUR ( '', #108 ) ;
#56 = DIRECTION ( 'NONE',  ( -1.000000000000000000, -1.224646799147353200E-016, -0.0000000000000000000 ) ) ;
#57 = PRESENTATION_STYLE_ASSIGNMENT (( #89 ) ) ;
#58 = CARTESIAN_POINT ( 'NONE',  ( 0.0000000000000000000, 0.0000000000000000000, 0.0000000000000000000 ) ) ;
#59 = EDGE_CURVE ( 'NONE', #139, #54, #95, .T. ) ;
#60 = ADVANCED_BREP_SHAPE_REPRESENTATION ( '197506', ( #40, #88 ), #26 ) ;
#61 = AXIS2_PLACEMENT_3D ( 'NONE', #43, #46, #47 ) ;
#62 = LINE ( 'NONE', #52, #79 ) ;
#63 = DIRECTION ( 'NONE',  ( 1.224646799147353500E-016, -1.000000000000000000, 0.0000000000000000000 ) ) ;
#64 = DIRECTION ( 'NONE',  ( -1.000000000000000000, -1.224646799147353200E-016, -0.0000000000000000000 ) ) ;
#65 = CARTESIAN_POINT ( 'NONE',  ( 9.556675116229813600, 25.39999999999999900, -25.40000000000002000 ) ) ;
#66 = PRODUCT_DEFINITION_SHAPE ( 'NONE', 'NONE',  #30 ) ;
#67 =( BOUNDED_CURVE ( )  B_SPLINE_CURVE ( 3, ( #29, #17, #37, #13 ),
 .UNSPECIFIED., .F., .T. ) 
 B_SPLINE_CURVE_WITH_KNOTS ( ( 4, 4 ),
 ( 3.141592653589793100, 6.283185307179586200 ),
 .UNSPECIFIED. ) 
 CURVE ( )  GEOMETRIC_REPRESENTATION_ITEM ( )  RATIONAL_B_SPLINE_CURVE ( ( 1.000000000000000000, 0.3333333333333333700, 0.3333333333333333700, 1.000000000000000000 ) ) 
 REPRESENTATION_ITEM ( '' )  );
#68 = APPLICATION_PROTOCOL_DEFINITION ( 'draft international standard', 'automotive_design', 1998, #69 ) ;
#69 = APPLICATION_CONTEXT ( 'automotive_design' ) ;
#70 = SURFACE_SIDE_STYLE ('',( #118 ) ) ;
#71 = AXIS2_PLACEMENT_3D ( 'NONE', #111, #64, #81 ) ;
#72 = EDGE_LOOP ( 'NONE', ( #113, #8 ) ) ;
#73 =( LENGTH_UNIT ( ) NAMED_UNIT ( * ) SI_UNIT ( .MILLI., .METRE. ) );
#74 =( NAMED_UNIT ( * ) PLANE_ANGLE_UNIT ( ) SI_UNIT ( $, .RADIAN. ) );
#75 = ORIENTED_EDGE ( 'NONE', *, *, #106, .T. ) ;
#76 =( NAMED_UNIT ( * ) SI_UNIT ( $, .STERADIAN. ) SOLID_ANGLE_UNIT ( ) );
#77 =( NAMED_UNIT ( * ) SI_UNIT ( $, .STERADIAN. ) SOLID_ANGLE_UNIT ( ) );
#78 = ORIENTED_EDGE ( 'NONE', *, *, #87, .T. ) ;
#79 = VECTOR ( 'NONE', #56, 1000.000000000000000 ) ;
#80 = FACE_OUTER_BOUND ( 'NONE', #18, .T. ) ;
#81 = DIRECTION ( 'NONE',  ( 1.365923996832131400E-016, -1.000000000000000000, 0.0000000000000000000 ) ) ;
#82 = DIRECTION ( 'NONE',  ( -1.000000000000000000, -1.224646799147353200E-016, -0.0000000000000000000 ) ) ;
#83 = DIRECTION ( 'NONE',  ( 0.0000000000000000000, 0.0000000000000000000, 1.000000000000000000 ) ) ;
#84 = EDGE_CURVE ( 'NONE', #27, #139, #128, .T. ) ;
#85 = CARTESIAN_POINT ( 'NONE',  ( 10.00000000000000500, -25.39999999999998800, -25.40000000000002000 ) ) ;
#86 = AXIS2_PLACEMENT_3D ( 'NONE', #50, #117, #122 ) ;
#87 = EDGE_CURVE ( 'NONE', #27, #120, #67, .T. ) ;
#88 = AXIS2_PLACEMENT_3D ( 'NONE', #58, #83, #12 ) ;
#89 = SURFACE_STYLE_USAGE ( .BOTH. , #70 ) ;
#90 = APPLICATION_PROTOCOL_DEFINITION ( 'draft international standard', 'automotive_design', 1998, #16 ) ;
#91 = PRESENTATION_LAYER_ASSIGNMENT (  '', '', ( #121 ) ) ;
#92 = PRODUCT_DEFINITION_CONTEXT ( 'detailed design', #16, 'design' ) ;
#93 = CYLINDRICAL_SURFACE ( 'NONE', #71, 25.40000000000000200 ) ;
#94 = FILL_AREA_STYLE_COLOUR ( '', #110 ) ;
#95 = CIRCLE ( 'NONE', #123, 25.40000000000000200 ) ;
#96 =( LENGTH_UNIT ( ) NAMED_UNIT ( * ) SI_UNIT ( .MILLI., .METRE. ) );
#97 = MECHANICAL_DESIGN_GEOMETRIC_PRESENTATION_REPRESENTATION (  '', ( #121 ), #129 ) ;
#98 = PLANE ( 'NONE',  #86 ) ;
#99 = DIRECTION ( 'NONE',  ( 1.365923996832131400E-016, -1.000000000000000000, 0.0000000000000000000 ) ) ;
#100 =( NAMED_UNIT ( * ) SI_UNIT ( $, .STERADIAN. ) SOLID_ANGLE_UNIT ( ) );
#101 = CARTESIAN_POINT ( 'NONE',  ( 10.00000000000000700, -25.40000000000000200, 25.39999999999999900 ) ) ;
#102 = ORIENTED_EDGE ( 'NONE', *, *, #59, .T. ) ;
#103 = CARTESIAN_POINT ( 'NONE',  ( 9.556675116229813600, 25.40000000000000200, 25.40000000000000200 ) ) ;
#104 = ADVANCED_FACE ( 'NONE', ( #48 ), #93, .T. ) ;
#105 =( NAMED_UNIT ( * ) PLANE_ANGLE_UNIT ( ) SI_UNIT ( $, .RADIAN. ) );
#106 = EDGE_CURVE ( 'NONE', #120, #27, #114, .T. ) ;
#107 = SURFACE_STYLE_FILL_AREA ( #28 ) ;
#108 = COLOUR_RGB ( '',1.000000000000000000, 1.000000000000000000, 1.000000000000000000 ) ;
#109 = UNCERTAINTY_MEASURE_WITH_UNIT (LENGTH_MEASURE( 1.000000000000000100E-005 ), #73, 'distance_accuracy_value', 'NONE');
#110 = COLOUR_RGB ( '',1.000000000000000000, 1.000000000000000000, 1.000000000000000000 ) ;
#111 = CARTESIAN_POINT ( 'NONE',  ( 10.00000000000000000, 1.224646799147353300E-015, 25.39999999999999900 ) ) ;
#112 = FACE_OUTER_BOUND ( 'NONE', #72, .T. ) ;
#113 = ORIENTED_EDGE ( 'NONE', *, *, #87, .F. ) ;
#114 =( BOUNDED_CURVE ( )  B_SPLINE_CURVE ( 3, ( #103, #65, #85, #101 ),
 .UNSPECIFIED., .F., .F. ) 
 B_SPLINE_CURVE_WITH_KNOTS ( ( 4, 4 ),
 ( 0.0000000000000000000, 3.141592653589793100 ),
 .UNSPECIFIED. ) 
 CURVE ( )  GEOMETRIC_REPRESENTATION_ITEM ( )  RATIONAL_B_SPLINE_CURVE ( ( 1.000000000000000000, 0.3333333333333333700, 0.3333333333333333700, 1.000000000000000000 ) ) 
 REPRESENTATION_ITEM ( '' )  );
#115 = DIRECTION ( 'NONE',  ( -1.000000000000000000, -1.224646799147353200E-016, -0.0000000000000000000 ) ) ;
#116 = PRESENTATION_STYLE_ASSIGNMENT (( #5 ) ) ;
#117 = DIRECTION ( 'NONE',  ( 1.000000000000000000, 1.224646799147353200E-016, -0.0000000000000000000 ) ) ;
#118 = SURFACE_STYLE_FILL_AREA ( #14 ) ;
#119 = CARTESIAN_POINT ( 'NONE',  ( 10.00000000000000700, -25.40000000000000200, 25.39999999999999900 ) ) ;
#120 = VERTEX_POINT ( 'NONE', #6 ) ;
#121 = STYLED_ITEM ( 'NONE', ( #57 ), #60 ) ;
#122 = DIRECTION ( 'NONE',  ( -1.224646799147353200E-016, 1.000000000000000000, 0.0000000000000000000 ) ) ;
#123 = AXIS2_PLACEMENT_3D ( 'NONE', #34, #11, #63 ) ;
#124 = ORIENTED_EDGE ( 'NONE', *, *, #84, .T. ) ;
#125 = UNCERTAINTY_MEASURE_WITH_UNIT (LENGTH_MEASURE( 1.000000000000000100E-005 ), #96, 'distance_accuracy_value', 'NONE');
#126 = MECHANICAL_DESIGN_GEOMETRIC_PRESENTATION_REPRESENTATION (  '', ( #21 ), #130 ) ;
#127 = VECTOR ( 'NONE', #115, 1000.000000000000000 ) ;
#128 = LINE ( 'NONE', #31, #127 ) ;
#129 =( GEOMETRIC_REPRESENTATION_CONTEXT ( 3 ) GLOBAL_UNCERTAINTY_ASSIGNED_CONTEXT ( ( #109 ) ) GLOBAL_UNIT_ASSIGNED_CONTEXT ( ( #73, #74, #77 ) ) REPRESENTATION_CONTEXT ( 'NONE', 'WORKASPACE' ) );
#130 =( GEOMETRIC_REPRESENTATION_CONTEXT ( 3 ) GLOBAL_UNCERTAINTY_ASSIGNED_CONTEXT ( ( #3 ) ) GLOBAL_UNIT_ASSIGNED_CONTEXT ( ( #138, #140, #100 ) ) REPRESENTATION_CONTEXT ( 'NONE', 'WORKASPACE' ) );
#131 = FACE_OUTER_BOUND ( 'NONE', #19, .T. ) ;
#132 = ADVANCED_FACE ( 'NONE', ( #80 ), #35, .T. ) ;
#133 = EDGE_CURVE ( 'NONE', #54, #139, #22, .T. ) ;
#134 = EDGE_LOOP ( 'NONE', ( #44, #75, #124, #4 ) ) ;
#135 = ADVANCED_FACE ( 'NONE', ( #112 ), #33, .F. ) ;
#136 = AXIS2_PLACEMENT_3D ( 'NONE', #23, #49, #53 ) ;
#137 = ORIENTED_EDGE ( 'NONE', *, *, #59, .F. ) ;
#138 =( LENGTH_UNIT ( ) NAMED_UNIT ( * ) SI_UNIT ( .MILLI., .METRE. ) );
#139 = VERTEX_POINT ( 'NONE', #42 ) ;
#140 =( NAMED_UNIT ( * ) PLANE_ANGLE_UNIT ( ) SI_UNIT ( $, .RADIAN. ) );
ENDSEC;
END-ISO-10303-21;
