ISO-10303-21;
HEADER;
FILE_DESCRIPTION (( 'STEP AP203' ),
    '1' );
FILE_NAME ('1.5.4.27-ZXG-18-25.STEP',
    '2024-05-29T06:57:46',
    ( '' ),
    ( '' ),
    'SwSTEP 2.0',
    'SolidWorks 2021',
    '' );
FILE_SCHEMA (( 'CONFIG_CONTROL_DESIGN' ));
ENDSEC;

DATA;
#1 = CARTESIAN_POINT ( 'NONE',  ( 0.000000000000000000, 0.05000000000000000278, 0.000000000000000000 ) ) ;
#2 = AXIS2_PLACEMENT_3D ( 'NONE', #1, #266, #220 ) ;
#3 = PERSON_AND_ORGANIZATION_ROLE ( 'creator' ) ;
#4 = VERTEX_POINT ( 'NONE', #158 ) ;
#5 = PERSON_AND_ORGANIZATION_ROLE ( 'design_owner' ) ;
#6 = EDGE_LOOP ( 'NONE', ( #79, #108, #270, #138 ) ) ;
#7 = DATE_AND_TIME ( #9, #238 ) ;
#8 = ORIENTED_EDGE ( 'NONE', *, *, #188, .T. ) ;
#9 = CALENDAR_DATE ( 2024, 29, 5 ) ;
#10 = EDGE_LOOP ( 'NONE', ( #224, #100, #296, #181 ) ) ;
#11 = APPROVAL_DATE_TIME ( #295, #174 ) ;
#12 = ORIENTED_EDGE ( 'NONE', *, *, #13, .F. ) ;
#13 = EDGE_CURVE ( 'NONE', #31, #129, #106, .T. ) ;
#14 = CARTESIAN_POINT ( 'NONE',  ( 1.102182119232617714E-15, 0.05000000000000000278, 9.000000000000000000 ) ) ;
#15 = CARTESIAN_POINT ( 'NONE',  ( -5.999999999999999112, 0.05000000000000000278, 0.01250000000000000243 ) ) ;
#16 = PLANE ( 'NONE',  #293 ) ;
#17 = VECTOR ( 'NONE', #97, 1000.000000000000000 ) ;
#18 = CARTESIAN_POINT ( 'NONE',  ( -5.999999999999999112, 0.05000000000000000278, -0.01249999999999999896 ) ) ;
#19 = CARTESIAN_POINT ( 'NONE',  ( 6.000000000000000888, 0.05000000000000000278, -0.01249999999999999896 ) ) ;
#20 = FACE_OUTER_BOUND ( 'NONE', #103, .T. ) ;
#21 = CC_DESIGN_PERSON_AND_ORGANIZATION_ASSIGNMENT ( #298, #230, ( #253 ) ) ;
#22 = VECTOR ( 'NONE', #281, 1000.000000000000000 ) ;
#23 = LINE ( 'NONE', #122, #223 ) ;
#24 = CARTESIAN_POINT ( 'NONE',  ( 6.000000000000000888, 0.05000000000000000278, 0.01250000000000000243 ) ) ;
#25 = LINE ( 'NONE', #124, #17 ) ;
#26 = CC_DESIGN_APPROVAL ( #174, ( #57 ) ) ;
#27 = MECHANICAL_CONTEXT ( 'NONE', #56, 'mechanical' ) ;
#28 = VERTEX_POINT ( 'NONE', #259 ) ;
#29 = EDGE_LOOP ( 'NONE', ( #294, #274, #55, #182 ) ) ;
#30 = APPROVAL_STATUS ( 'not_yet_approved' ) ;
#31 = VERTEX_POINT ( 'NONE', #64 ) ;
#32 = PRODUCT_DEFINITION ( 'Î´Öª', '', #253, #114 ) ;
#33 = APPROVAL_STATUS ( 'not_yet_approved' ) ;
#34 = APPROVAL_PERSON_ORGANIZATION ( #292, #196, #178 ) ;
#35 = PERSON_AND_ORGANIZATION ( #63, #160 ) ;
#36 = VERTEX_POINT ( 'NONE', #14 ) ;
#37 = ORIENTED_EDGE ( 'NONE', *, *, #212, .F. ) ;
#38 = DIRECTION ( 'NONE',  ( -0.000000000000000000, -1.000000000000000000, -0.000000000000000000 ) ) ;
#39 = VECTOR ( 'NONE', #243, 1000.000000000000000 ) ;
#40 = DIRECTION ( 'NONE',  ( 0.000000000000000000, 0.000000000000000000, 1.000000000000000000 ) ) ;
#41 = DIRECTION ( 'NONE',  ( 1.000000000000000000, 0.000000000000000000, -0.000000000000000000 ) ) ;
#42 = ADVANCED_FACE ( 'NONE', ( #43, #61 ), #45, .F. ) ;
#43 = FACE_OUTER_BOUND ( 'NONE', #231, .T. ) ;
#44 = AXIS2_PLACEMENT_3D ( 'NONE', #119, #283, #308 ) ;
#45 = PLANE ( 'NONE',  #51 ) ;
#46 = LINE ( 'NONE', #24, #39 ) ;
#47 = ADVANCED_FACE ( 'NONE', ( #278 ), #139, .T. ) ;
#48 = DIRECTION ( 'NONE',  ( 1.000000000000000000, 0.000000000000000000, 0.000000000000000000 ) ) ;
#49 = DIRECTION ( 'NONE',  ( -0.000000000000000000, -1.000000000000000000, -0.000000000000000000 ) ) ;
#50 = CARTESIAN_POINT ( 'NONE',  ( 0.000000000000000000, 0.000000000000000000, 0.000000000000000000 ) ) ;
#51 = AXIS2_PLACEMENT_3D ( 'NONE', #216, #306, #89 ) ;
#52 = APPROVAL_DATE_TIME ( #228, #152 ) ;
#53 = PERSON_AND_ORGANIZATION_ROLE ( 'classification_officer' ) ;
#54 = ORIENTED_EDGE ( 'NONE', *, *, #249, .F. ) ;
#55 = ORIENTED_EDGE ( 'NONE', *, *, #236, .T. ) ;
#56 = APPLICATION_CONTEXT ( 'configuration controlled 3d designs of mechanical parts and assemblies' ) ;
#57 = SECURITY_CLASSIFICATION ( '', '', #254 ) ;
#58 = CC_DESIGN_DATE_AND_TIME_ASSIGNMENT ( #133, #185, ( #32 ) ) ;
#59 = ORIENTED_EDGE ( 'NONE', *, *, #279, .T. ) ;
#60 = ORIENTED_EDGE ( 'NONE', *, *, #206, .F. ) ;
#61 = FACE_BOUND ( 'NONE', #229, .T. ) ;
#62 = AXIS2_PLACEMENT_3D ( 'NONE', #311, #263, #173 ) ;
#63 = PERSON ( 'Î´Ö¸¶¨', 'Î´Ö¸¶¨', 'Î´Ö¸¶¨', ('Î´Ö¸¶¨'), ('Î´Ö¸¶¨'), ('Î´Ö¸¶¨') ) ;
#64 = CARTESIAN_POINT ( 'NONE',  ( -5.999999999999999112, 0.05000000000000000278, -0.01249999999999999896 ) ) ;
#65 = CARTESIAN_POINT ( 'NONE',  ( -5.999999999999999112, 0.000000000000000000, -0.01249999999999999896 ) ) ;
#66 = ORIENTED_EDGE ( 'NONE', *, *, #149, .F. ) ;
#67 = CARTESIAN_POINT ( 'NONE',  ( -5.999999999999999112, 0.000000000000000000, -0.01249999999999999896 ) ) ;
#68 = CARTESIAN_POINT ( 'NONE',  ( 0.000000000000000000, 0.05000000000000000278, -9.000000000000000000 ) ) ;
#69 = CARTESIAN_POINT ( 'NONE',  ( 6.000000000000000888, 0.000000000000000000, -0.01249999999999999896 ) ) ;
#70 =( NAMED_UNIT ( * ) PLANE_ANGLE_UNIT ( ) SI_UNIT ( $, .RADIAN. ) );
#71 = LOCAL_TIME ( 14, 57, 46.00000000000000000, #156 ) ;
#72 = LINE ( 'NONE', #200, #148 ) ;
#73 =( NAMED_UNIT ( * ) SI_UNIT ( $, .STERADIAN. ) SOLID_ANGLE_UNIT ( ) );
#74 = AXIS2_PLACEMENT_3D ( 'NONE', #86, #38, #258 ) ;
#75 = COORDINATED_UNIVERSAL_TIME_OFFSET ( 8, 0, .AHEAD. ) ;
#76 = CC_DESIGN_PERSON_AND_ORGANIZATION_ASSIGNMENT ( #136, #3, ( #32 ) ) ;
#77 = VERTEX_POINT ( 'NONE', #191 ) ;
#78 = PERSON_AND_ORGANIZATION ( #63, #160 ) ;
#79 = ORIENTED_EDGE ( 'NONE', *, *, #177, .F. ) ;
#80 = ORIENTED_EDGE ( 'NONE', *, *, #13, .T. ) ;
#81 = CC_DESIGN_APPROVAL ( #196, ( #32 ) ) ;
#82 = ORIENTED_EDGE ( 'NONE', *, *, #95, .F. ) ;
#83 = ADVANCED_FACE ( 'NONE', ( #116 ), #192, .T. ) ;
#84 = ORIENTED_EDGE ( 'NONE', *, *, #302, .F. ) ;
#85 = CARTESIAN_POINT ( 'NONE',  ( 6.000000000000000888, 0.05000000000000000278, 0.01250000000000000243 ) ) ;
#86 = CARTESIAN_POINT ( 'NONE',  ( 0.000000000000000000, 0.05000000000000000278, 0.000000000000000000 ) ) ;
#87 = EDGE_CURVE ( 'NONE', #277, #77, #168, .T. ) ;
#88 =( GEOMETRIC_REPRESENTATION_CONTEXT ( 3 ) GLOBAL_UNCERTAINTY_ASSIGNED_CONTEXT ( ( #104 ) ) GLOBAL_UNIT_ASSIGNED_CONTEXT ( ( #93, #70, #73 ) ) REPRESENTATION_CONTEXT ( 'NONE', 'WORKASPACE' ) );
#89 = DIRECTION ( 'NONE',  ( 0.000000000000000000, -0.000000000000000000, 1.000000000000000000 ) ) ;
#90 = DIRECTION ( 'NONE',  ( 0.000000000000000000, -0.000000000000000000, 1.000000000000000000 ) ) ;
#91 = CARTESIAN_POINT ( 'NONE',  ( -5.999999999999999112, 0.000000000000000000, 0.01250000000000000243 ) ) ;
#92 = LINE ( 'NONE', #221, #154 ) ;
#93 =( LENGTH_UNIT ( ) NAMED_UNIT ( * ) SI_UNIT ( .MILLI., .METRE. ) );
#94 = DIRECTION ( 'NONE',  ( 0.000000000000000000, 1.000000000000000000, 0.000000000000000000 ) ) ;
#95 = EDGE_CURVE ( 'NONE', #162, #31, #143, .T. ) ;
#96 = VECTOR ( 'NONE', #163, 1000.000000000000000 ) ;
#97 = DIRECTION ( 'NONE',  ( -0.000000000000000000, -0.000000000000000000, -1.000000000000000000 ) ) ;
#98 = ADVANCED_FACE ( 'NONE', ( #282 ), #235, .T. ) ;
#99 = CALENDAR_DATE ( 2024, 29, 5 ) ;
#100 = ORIENTED_EDGE ( 'NONE', *, *, #219, .F. ) ;
#101 = VECTOR ( 'NONE', #264, 1000.000000000000000 ) ;
#102 = CALENDAR_DATE ( 2024, 29, 5 ) ;
#103 = EDGE_LOOP ( 'NONE', ( #211, #301, #80, #204 ) ) ;
#104 = UNCERTAINTY_MEASURE_WITH_UNIT (LENGTH_MEASURE( 1.000000000000000082E-05 ), #93, 'distance_accuracy_value', 'NONE');
#105 = PERSON_AND_ORGANIZATION ( #63, #160 ) ;
#106 = LINE ( 'NONE', #252, #121 ) ;
#107 = DATE_TIME_ROLE ( 'classification_date' ) ;
#108 = ORIENTED_EDGE ( 'NONE', *, *, #145, .F. ) ;
#109 = PRODUCT_RELATED_PRODUCT_CATEGORY ( 'detail', '', ( #135 ) ) ;
#110 = SHAPE_DEFINITION_REPRESENTATION ( #273, #132 ) ;
#111 = CIRCLE ( 'NONE', #244, 9.000000000000000000 ) ;
#112 = ORIENTED_EDGE ( 'NONE', *, *, #87, .T. ) ;
#113 = LINE ( 'NONE', #141, #247 ) ;
#114 = DESIGN_CONTEXT ( 'detailed design', #288, 'design' ) ;
#115 = CARTESIAN_POINT ( 'NONE',  ( -5.999999999999999112, 0.05000000000000000278, 0.01250000000000000243 ) ) ;
#116 = FACE_OUTER_BOUND ( 'NONE', #227, .T. ) ;
#117 = APPROVAL_PERSON_ORGANIZATION ( #205, #152, #203 ) ;
#118 = DIRECTION ( 'NONE',  ( 0.000000000000000000, 0.000000000000000000, 1.000000000000000000 ) ) ;
#119 = CARTESIAN_POINT ( 'NONE',  ( 0.000000000000000000, 0.05000000000000000278, 0.000000000000000000 ) ) ;
#120 = DIRECTION ( 'NONE',  ( 0.000000000000000000, 0.000000000000000000, -1.000000000000000000 ) ) ;
#121 = VECTOR ( 'NONE', #209, 1000.000000000000000 ) ;
#122 = CARTESIAN_POINT ( 'NONE',  ( 6.000000000000000888, 0.05000000000000000278, -0.01249999999999999896 ) ) ;
#123 = DIRECTION ( 'NONE',  ( 0.000000000000000000, 0.000000000000000000, 1.000000000000000000 ) ) ;
#124 = CARTESIAN_POINT ( 'NONE',  ( 6.000000000000000888, 0.05000000000000000278, -0.01249999999999999896 ) ) ;
#125 = APPROVAL_PERSON_ORGANIZATION ( #105, #174, #130 ) ;
#126 = VERTEX_POINT ( 'NONE', #217 ) ;
#127 = ADVANCED_FACE ( 'NONE', ( #195 ), #260, .T. ) ;
#128 = CALENDAR_DATE ( 2024, 29, 5 ) ;
#129 = VERTEX_POINT ( 'NONE', #15 ) ;
#130 = APPROVAL_ROLE ( '' ) ;
#131 = ORIENTED_EDGE ( 'NONE', *, *, #177, .T. ) ;
#132 = ADVANCED_BREP_SHAPE_REPRESENTATION ( '1.5.4.27-ZXG-18-25', ( #187, #284 ), #88 ) ;
#133 = DATE_AND_TIME ( #99, #71 ) ;
#134 = ORIENTED_EDGE ( 'NONE', *, *, #249, .T. ) ;
#135 = PRODUCT ( '1.5.4.27-ZXG-18-25', '1.5.4.27-ZXG-18-25', '', ( #27 ) ) ;
#136 = PERSON_AND_ORGANIZATION ( #63, #160 ) ;
#137 = ORIENTED_EDGE ( 'NONE', *, *, #201, .T. ) ;
#138 = ORIENTED_EDGE ( 'NONE', *, *, #219, .T. ) ;
#139 = CYLINDRICAL_SURFACE ( 'NONE', #44, 9.000000000000000000 ) ;
#140 = ADVANCED_FACE ( 'NONE', ( #237, #307 ), #16, .T. ) ;
#141 = CARTESIAN_POINT ( 'NONE',  ( -5.999999999999999112, 0.05000000000000000278, 0.01250000000000000243 ) ) ;
#142 = DIRECTION ( 'NONE',  ( -1.000000000000000000, 0.000000000000000000, 0.000000000000000000 ) ) ;
#143 = LINE ( 'NONE', #18, #184 ) ;
#144 = CARTESIAN_POINT ( 'NONE',  ( 0.000000000000000000, 0.05000000000000000278, 0.000000000000000000 ) ) ;
#145 = EDGE_CURVE ( 'NONE', #129, #153, #113, .T. ) ;
#146 = LINE ( 'NONE', #172, #179 ) ;
#147 = DIRECTION ( 'NONE',  ( -0.000000000000000000, -1.000000000000000000, -0.000000000000000000 ) ) ;
#148 = VECTOR ( 'NONE', #147, 1000.000000000000000 ) ;
#149 = EDGE_CURVE ( 'NONE', #129, #183, #304, .T. ) ;
#150 = DIRECTION ( 'NONE',  ( -0.000000000000000000, -1.000000000000000000, -0.000000000000000000 ) ) ;
#151 = DIRECTION ( 'NONE',  ( 0.000000000000000000, 0.000000000000000000, 1.000000000000000000 ) ) ;
#152 = APPROVAL ( #33, 'Î´Ö¸¶¨' ) ;
#153 = VERTEX_POINT ( 'NONE', #194 ) ;
#154 = VECTOR ( 'NONE', #198, 1000.000000000000000 ) ;
#155 = APPLICATION_PROTOCOL_DEFINITION ( 'international standard', 'config_control_design', 1994, #288 ) ;
#156 = COORDINATED_UNIVERSAL_TIME_OFFSET ( 8, 0, .AHEAD. ) ;
#157 = EDGE_LOOP ( 'NONE', ( #8, #134 ) ) ;
#158 = CARTESIAN_POINT ( 'NONE',  ( 1.102182119232617714E-15, 0.000000000000000000, 9.000000000000000000 ) ) ;
#159 = EDGE_CURVE ( 'NONE', #77, #153, #213, .T. ) ;
#160 = ORGANIZATION ( 'Î´Ö¸¶¨', 'Î´Ö¸¶¨', '' ) ;
#161 = CALENDAR_DATE ( 2024, 29, 5 ) ;
#162 = VERTEX_POINT ( 'NONE', #19 ) ;
#163 = DIRECTION ( 'NONE',  ( 0.000000000000000000, 0.000000000000000000, 1.000000000000000000 ) ) ;
#164 = ADVANCED_FACE ( 'NONE', ( #170 ), #256, .T. ) ;
#165 = CLOSED_SHELL ( 'NONE', ( #83, #140, #42, #47, #127, #98, #242, #164 ) ) ;
#166 = CARTESIAN_POINT ( 'NONE',  ( 6.000000000000000888, 0.05000000000000000278, -0.01249999999999999896 ) ) ;
#167 = DIRECTION ( 'NONE',  ( -1.000000000000000000, -0.000000000000000000, -0.000000000000000000 ) ) ;
#168 = LINE ( 'NONE', #65, #305 ) ;
#169 = CC_DESIGN_PERSON_AND_ORGANIZATION_ASSIGNMENT ( #78, #5, ( #135 ) ) ;
#170 = FACE_OUTER_BOUND ( 'NONE', #6, .T. ) ;
#171 = LOCAL_TIME ( 14, 57, 46.00000000000000000, #208 ) ;
#172 = CARTESIAN_POINT ( 'NONE',  ( -5.999999999999999112, 0.05000000000000000278, -0.01249999999999999896 ) ) ;
#173 = DIRECTION ( 'NONE',  ( 0.000000000000000000, 0.000000000000000000, 1.000000000000000000 ) ) ;
#174 = APPROVAL ( #30, 'Î´Ö¸¶¨' ) ;
#175 = CIRCLE ( 'NONE', #62, 9.000000000000000000 ) ;
#176 = CARTESIAN_POINT ( 'NONE',  ( 0.000000000000000000, 0.000000000000000000, 0.000000000000000000 ) ) ;
#177 = EDGE_CURVE ( 'NONE', #153, #126, #218, .T. ) ;
#178 = APPROVAL_ROLE ( '' ) ;
#179 = VECTOR ( 'NONE', #49, 1000.000000000000000 ) ;
#180 = COORDINATED_UNIVERSAL_TIME_OFFSET ( 8, 0, .AHEAD. ) ;
#181 = ORIENTED_EDGE ( 'NONE', *, *, #302, .T. ) ;
#182 = ORIENTED_EDGE ( 'NONE', *, *, #206, .T. ) ;
#183 = VERTEX_POINT ( 'NONE', #85 ) ;
#184 = VECTOR ( 'NONE', #240, 1000.000000000000000 ) ;
#185 = DATE_TIME_ROLE ( 'creation_date' ) ;
#186 = ORIENTED_EDGE ( 'NONE', *, *, #95, .T. ) ;
#187 = MANIFOLD_SOLID_BREP ( 'Í¹Ì¨-À­Éì1', #165 ) ;
#188 = EDGE_CURVE ( 'NONE', #248, #36, #175, .T. ) ;
#189 = ORIENTED_EDGE ( 'NONE', *, *, #268, .T. ) ;
#190 = CARTESIAN_POINT ( 'NONE',  ( -5.999999999999999112, 0.05000000000000000278, 0.01250000000000000243 ) ) ;
#191 = CARTESIAN_POINT ( 'NONE',  ( -5.999999999999999112, 0.000000000000000000, -0.01249999999999999896 ) ) ;
#192 = CYLINDRICAL_SURFACE ( 'NONE', #74, 9.000000000000000000 ) ;
#193 = CC_DESIGN_PERSON_AND_ORGANIZATION_ASSIGNMENT ( #291, #53, ( #57 ) ) ;
#194 = CARTESIAN_POINT ( 'NONE',  ( -5.999999999999999112, 0.000000000000000000, 0.01250000000000000243 ) ) ;
#195 = FACE_OUTER_BOUND ( 'NONE', #10, .T. ) ;
#196 = APPROVAL ( #226, 'Î´Ö¸¶¨' ) ;
#197 = PLANE ( 'NONE',  #261 ) ;
#198 = DIRECTION ( 'NONE',  ( -0.000000000000000000, -0.000000000000000000, -1.000000000000000000 ) ) ;
#199 = CC_DESIGN_APPROVAL ( #152, ( #253 ) ) ;
#200 = CARTESIAN_POINT ( 'NONE',  ( 1.102182119232617714E-15, 0.05000000000000000278, 9.000000000000000000 ) ) ;
#201 = EDGE_CURVE ( 'NONE', #31, #77, #146, .T. ) ;
#202 = LINE ( 'NONE', #287, #101 ) ;
#203 = APPROVAL_ROLE ( '' ) ;
#204 = ORIENTED_EDGE ( 'NONE', *, *, #145, .T. ) ;
#205 = PERSON_AND_ORGANIZATION ( #63, #160 ) ;
#206 = EDGE_CURVE ( 'NONE', #28, #4, #111, .T. ) ;
#207 = EDGE_LOOP ( 'NONE', ( #299, #84, #186, #137 ) ) ;
#208 = COORDINATED_UNIVERSAL_TIME_OFFSET ( 8, 0, .AHEAD. ) ;
#209 = DIRECTION ( 'NONE',  ( 0.000000000000000000, 0.000000000000000000, 1.000000000000000000 ) ) ;
#210 = DATE_AND_TIME ( #128, #215 ) ;
#211 = ORIENTED_EDGE ( 'NONE', *, *, #159, .F. ) ;
#212 = EDGE_CURVE ( 'NONE', #183, #162, #25, .T. ) ;
#213 = LINE ( 'NONE', #67, #96 ) ;
#214 = DIRECTION ( 'NONE',  ( -0.000000000000000000, -1.000000000000000000, -0.000000000000000000 ) ) ;
#215 = LOCAL_TIME ( 14, 57, 46.00000000000000000, #75 ) ;
#216 = CARTESIAN_POINT ( 'NONE',  ( 0.000000000000000000, 0.000000000000000000, 0.000000000000000000 ) ) ;
#217 = CARTESIAN_POINT ( 'NONE',  ( 6.000000000000000888, 0.000000000000000000, 0.01250000000000000243 ) ) ;
#218 = LINE ( 'NONE', #91, #285 ) ;
#219 = EDGE_CURVE ( 'NONE', #183, #126, #46, .T. ) ;
#220 = DIRECTION ( 'NONE',  ( 0.000000000000000000, 0.000000000000000000, 1.000000000000000000 ) ) ;
#221 = CARTESIAN_POINT ( 'NONE',  ( 6.000000000000000888, 0.000000000000000000, -0.01249999999999999896 ) ) ;
#222 = CARTESIAN_POINT ( 'NONE',  ( -5.999999999999999112, 0.05000000000000000278, -0.01249999999999999896 ) ) ;
#223 = VECTOR ( 'NONE', #150, 1000.000000000000000 ) ;
#224 = ORIENTED_EDGE ( 'NONE', *, *, #268, .F. ) ;
#225 = CC_DESIGN_PERSON_AND_ORGANIZATION_ASSIGNMENT ( #35, #269, ( #253 ) ) ;
#226 = APPROVAL_STATUS ( 'not_yet_approved' ) ;
#227 = EDGE_LOOP ( 'NONE', ( #54, #59, #276, #255 ) ) ;
#228 = DATE_AND_TIME ( #161, #289 ) ;
#229 = EDGE_LOOP ( 'NONE', ( #189, #112, #251, #131 ) ) ;
#230 = PERSON_AND_ORGANIZATION_ROLE ( 'creator' ) ;
#231 = EDGE_LOOP ( 'NONE', ( #60, #272 ) ) ;
#232 = EDGE_LOOP ( 'NONE', ( #82, #37, #66, #12 ) ) ;
#233 = CIRCLE ( 'NONE', #300, 9.000000000000000000 ) ;
#234 = DIRECTION ( 'NONE',  ( 1.000000000000000000, 0.000000000000000000, 0.000000000000000000 ) ) ;
#235 = PLANE ( 'NONE',  #257 ) ;
#236 = EDGE_CURVE ( 'NONE', #248, #28, #202, .T. ) ;
#237 = FACE_OUTER_BOUND ( 'NONE', #157, .T. ) ;
#238 = LOCAL_TIME ( 14, 57, 46.00000000000000000, #250 ) ;
#239 = CC_DESIGN_SECURITY_CLASSIFICATION ( #57, ( #253 ) ) ;
#240 = DIRECTION ( 'NONE',  ( -1.000000000000000000, -0.000000000000000000, -0.000000000000000000 ) ) ;
#241 = DIRECTION ( 'NONE',  ( 0.000000000000000000, 1.000000000000000000, 0.000000000000000000 ) ) ;
#242 = ADVANCED_FACE ( 'NONE', ( #20 ), #197, .T. ) ;
#243 = DIRECTION ( 'NONE',  ( -0.000000000000000000, -1.000000000000000000, -0.000000000000000000 ) ) ;
#244 = AXIS2_PLACEMENT_3D ( 'NONE', #290, #94, #123 ) ;
#245 = DIRECTION ( 'NONE',  ( 0.000000000000000000, 1.000000000000000000, 0.000000000000000000 ) ) ;
#246 = DIRECTION ( 'NONE',  ( 1.000000000000000000, 0.000000000000000000, 0.000000000000000000 ) ) ;
#247 = VECTOR ( 'NONE', #214, 1000.000000000000000 ) ;
#248 = VERTEX_POINT ( 'NONE', #68 ) ;
#249 = EDGE_CURVE ( 'NONE', #36, #248, #280, .T. ) ;
#250 = COORDINATED_UNIVERSAL_TIME_OFFSET ( 8, 0, .AHEAD. ) ;
#251 = ORIENTED_EDGE ( 'NONE', *, *, #159, .T. ) ;
#252 = CARTESIAN_POINT ( 'NONE',  ( -5.999999999999999112, 0.05000000000000000278, -0.01249999999999999896 ) ) ;
#253 = PRODUCT_DEFINITION_FORMATION_WITH_SPECIFIED_SOURCE ( 'ÈÎºÎ', '', #135, .NOT_KNOWN. ) ;
#254 = SECURITY_CLASSIFICATION_LEVEL ( 'unclassified' ) ;
#255 = ORIENTED_EDGE ( 'NONE', *, *, #236, .F. ) ;
#256 = PLANE ( 'NONE',  #275 ) ;
#257 = AXIS2_PLACEMENT_3D ( 'NONE', #286, #118, #41 ) ;
#258 = DIRECTION ( 'NONE',  ( 0.000000000000000000, 0.000000000000000000, -1.000000000000000000 ) ) ;
#259 = CARTESIAN_POINT ( 'NONE',  ( 0.000000000000000000, 0.000000000000000000, -9.000000000000000000 ) ) ;
#260 = PLANE ( 'NONE',  #309 ) ;
#261 = AXIS2_PLACEMENT_3D ( 'NONE', #222, #48, #120 ) ;
#262 = DIRECTION ( 'NONE',  ( -1.000000000000000000, 0.000000000000000000, -0.000000000000000000 ) ) ;
#263 = DIRECTION ( 'NONE',  ( 0.000000000000000000, 1.000000000000000000, 0.000000000000000000 ) ) ;
#264 = DIRECTION ( 'NONE',  ( -0.000000000000000000, -1.000000000000000000, -0.000000000000000000 ) ) ;
#265 = CC_DESIGN_DATE_AND_TIME_ASSIGNMENT ( #7, #107, ( #57 ) ) ;
#266 = DIRECTION ( 'NONE',  ( 0.000000000000000000, 1.000000000000000000, 0.000000000000000000 ) ) ;
#267 = APPLICATION_PROTOCOL_DEFINITION ( 'international standard', 'config_control_design', 1994, #56 ) ;
#268 = EDGE_CURVE ( 'NONE', #126, #277, #92, .T. ) ;
#269 = PERSON_AND_ORGANIZATION_ROLE ( 'design_supplier' ) ;
#270 = ORIENTED_EDGE ( 'NONE', *, *, #149, .T. ) ;
#271 = APPROVAL_DATE_TIME ( #210, #196 ) ;
#272 = ORIENTED_EDGE ( 'NONE', *, *, #297, .F. ) ;
#273 = PRODUCT_DEFINITION_SHAPE ( 'NONE', 'NONE',  #32 ) ;
#274 = ORIENTED_EDGE ( 'NONE', *, *, #188, .F. ) ;
#275 = AXIS2_PLACEMENT_3D ( 'NONE', #190, #303, #262 ) ;
#276 = ORIENTED_EDGE ( 'NONE', *, *, #297, .T. ) ;
#277 = VERTEX_POINT ( 'NONE', #69 ) ;
#278 = FACE_OUTER_BOUND ( 'NONE', #29, .T. ) ;
#279 = EDGE_CURVE ( 'NONE', #36, #4, #72, .T. ) ;
#280 = CIRCLE ( 'NONE', #2, 9.000000000000000000 ) ;
#281 = DIRECTION ( 'NONE',  ( 1.000000000000000000, 0.000000000000000000, 0.000000000000000000 ) ) ;
#282 = FACE_OUTER_BOUND ( 'NONE', #207, .T. ) ;
#283 = DIRECTION ( 'NONE',  ( -0.000000000000000000, -1.000000000000000000, -0.000000000000000000 ) ) ;
#284 = AXIS2_PLACEMENT_3D ( 'NONE', #50, #151, #246 ) ;
#285 = VECTOR ( 'NONE', #234, 1000.000000000000000 ) ;
#286 = CARTESIAN_POINT ( 'NONE',  ( -5.999999999999999112, 0.05000000000000000278, -0.01249999999999999896 ) ) ;
#287 = CARTESIAN_POINT ( 'NONE',  ( 0.000000000000000000, 0.05000000000000000278, -9.000000000000000000 ) ) ;
#288 = APPLICATION_CONTEXT ( 'configuration controlled 3d designs of mechanical parts and assemblies' ) ;
#289 = LOCAL_TIME ( 14, 57, 46.00000000000000000, #180 ) ;
#290 = CARTESIAN_POINT ( 'NONE',  ( 0.000000000000000000, 0.000000000000000000, 0.000000000000000000 ) ) ;
#291 = PERSON_AND_ORGANIZATION ( #63, #160 ) ;
#292 = PERSON_AND_ORGANIZATION ( #63, #160 ) ;
#293 = AXIS2_PLACEMENT_3D ( 'NONE', #144, #241, #90 ) ;
#294 = ORIENTED_EDGE ( 'NONE', *, *, #279, .F. ) ;
#295 = DATE_AND_TIME ( #102, #171 ) ;
#296 = ORIENTED_EDGE ( 'NONE', *, *, #212, .T. ) ;
#297 = EDGE_CURVE ( 'NONE', #4, #28, #233, .T. ) ;
#298 = PERSON_AND_ORGANIZATION ( #63, #160 ) ;
#299 = ORIENTED_EDGE ( 'NONE', *, *, #87, .F. ) ;
#300 = AXIS2_PLACEMENT_3D ( 'NONE', #176, #245, #310 ) ;
#301 = ORIENTED_EDGE ( 'NONE', *, *, #201, .F. ) ;
#302 = EDGE_CURVE ( 'NONE', #162, #277, #23, .T. ) ;
#303 = DIRECTION ( 'NONE',  ( 0.000000000000000000, 0.000000000000000000, -1.000000000000000000 ) ) ;
#304 = LINE ( 'NONE', #115, #22 ) ;
#305 = VECTOR ( 'NONE', #167, 1000.000000000000000 ) ;
#306 = DIRECTION ( 'NONE',  ( 0.000000000000000000, 1.000000000000000000, 0.000000000000000000 ) ) ;
#307 = FACE_BOUND ( 'NONE', #232, .T. ) ;
#308 = DIRECTION ( 'NONE',  ( 0.000000000000000000, 0.000000000000000000, -1.000000000000000000 ) ) ;
#309 = AXIS2_PLACEMENT_3D ( 'NONE', #166, #142, #40 ) ;
#310 = DIRECTION ( 'NONE',  ( 0.000000000000000000, 0.000000000000000000, 1.000000000000000000 ) ) ;
#311 = CARTESIAN_POINT ( 'NONE',  ( 0.000000000000000000, 0.05000000000000000278, 0.000000000000000000 ) ) ;
ENDSEC;
END-ISO-10303-21;
