ISO-10303-21;
HEADER;
FILE_DESCRIPTION (( 'STEP AP214' ),
    '1' );
FILE_NAME ('503010.STEP',
    '2019-09-04T06:35:58',
    ( '' ),
    ( '' ),
    'SwSTEP 2.0',
    'SolidWorks 2016',
    '' );
FILE_SCHEMA (( 'AUTOMOTIVE_DESIGN' ));
ENDSEC;

DATA;
#1 = VERTEX_POINT ( 'NONE', #184 ) ;
#2 = AXIS2_PLACEMENT_3D ( 'NONE', #105, #51, #46 ) ;
#3 =( NAMED_UNIT ( * ) SI_UNIT ( $, .STERADIAN. ) SOLID_ANGLE_UNIT ( ) );
#4 = ADVANCED_FACE ( 'NONE', ( #95 ), #93, .T. ) ;
#5 =( GEOMETRIC_REPRESENTATION_CONTEXT ( 3 ) GLOBAL_UNCERTAINTY_ASSIGNED_CONTEXT ( ( #8 ) ) GLOBAL_UNIT_ASSIGNED_CONTEXT ( ( #118, #7, #3 ) ) REPRESENTATION_CONTEXT ( 'NONE', 'WORKASPACE' ) );
#6 = LINE ( 'NONE', #44, #63 ) ;
#7 =( NAMED_UNIT ( * ) PLANE_ANGLE_UNIT ( ) SI_UNIT ( $, .RADIAN. ) );
#8 = UNCERTAINTY_MEASURE_WITH_UNIT (LENGTH_MEASURE( 1.000000000000000100E-005 ), #118, 'distance_accuracy_value', 'NONE');
#9 = DIRECTION ( 'NONE',  ( 0.0000000000000000000, 0.0000000000000000000, 1.000000000000000000 ) ) ;
#10 =( NAMED_UNIT ( * ) SI_UNIT ( $, .STERADIAN. ) SOLID_ANGLE_UNIT ( ) );
#11 = DIRECTION ( 'NONE',  ( 0.0000000000000000000, 0.0000000000000000000, 1.000000000000000000 ) ) ;
#12 = CARTESIAN_POINT ( 'NONE',  ( 25.50000000000001400, -1.390324872067691800E-014, 0.0000000000000000000 ) ) ;
#13 = VERTEX_POINT ( 'NONE', #229 ) ;
#14 = ORIENTED_EDGE ( 'NONE', *, *, #230, .T. ) ;
#15 = CIRCLE ( 'NONE', #120, 25.50000000000001400 ) ;
#16 = APPLICATION_PROTOCOL_DEFINITION ( 'draft international standard', 'automotive_design', 1998, #33 ) ;
#17 = ORIENTED_EDGE ( 'NONE', *, *, #230, .F. ) ;
#18 = DIRECTION ( 'NONE',  ( 0.0000000000000000000, 0.0000000000000000000, 1.000000000000000000 ) ) ;
#19 = AXIS2_PLACEMENT_3D ( 'NONE', #158, #18, #239 ) ;
#20 = AXIS2_PLACEMENT_3D ( 'NONE', #48, #171, #27 ) ;
#21 = AXIS2_PLACEMENT_3D ( 'NONE', #169, #227, #123 ) ;
#22 = LINE ( 'NONE', #215, #195 ) ;
#23 = DIRECTION ( 'NONE',  ( -0.0000000000000000000, 1.000000000000000000, -0.0000000000000000000 ) ) ;
#24 = ADVANCED_FACE ( 'NONE', ( #40 ), #78, .F. ) ;
#25 = PRESENTATION_LAYER_ASSIGNMENT (  '', '', ( #244 ) ) ;
#26 = CARTESIAN_POINT ( 'NONE',  ( 0.0000000000000000000, 12.69999999999998900, 0.0000000000000000000 ) ) ;
#27 = DIRECTION ( 'NONE',  ( 0.0000000000000000000, -0.0000000000000000000, -1.000000000000000000 ) ) ;
#28 = AXIS2_PLACEMENT_3D ( 'NONE', #233, #213, #127 ) ;
#29 =( NAMED_UNIT ( * ) SI_UNIT ( $, .STERADIAN. ) SOLID_ANGLE_UNIT ( ) );
#30 = SURFACE_STYLE_USAGE ( .BOTH. , #125 ) ;
#31 = DIRECTION ( 'NONE',  ( -0.0000000000000000000, 1.000000000000000000, -0.0000000000000000000 ) ) ;
#32 = DIRECTION ( 'NONE',  ( 0.0000000000000000000, 0.0000000000000000000, 1.000000000000000000 ) ) ;
#33 = APPLICATION_CONTEXT ( 'automotive_design' ) ;
#34 = PRESENTATION_LAYER_ASSIGNMENT (  '', '', ( #228 ) ) ;
#35 =( NAMED_UNIT ( * ) PLANE_ANGLE_UNIT ( ) SI_UNIT ( $, .RADIAN. ) );
#36 = AXIS2_PLACEMENT_3D ( 'NONE', #62, #23, #186 ) ;
#37 = ORIENTED_EDGE ( 'NONE', *, *, #203, .T. ) ;
#38 = PRESENTATION_STYLE_ASSIGNMENT (( #90 ) ) ;
#39 =( GEOMETRIC_REPRESENTATION_CONTEXT ( 3 ) GLOBAL_UNCERTAINTY_ASSIGNED_CONTEXT ( ( #139 ) ) GLOBAL_UNIT_ASSIGNED_CONTEXT ( ( #216, #35, #109 ) ) REPRESENTATION_CONTEXT ( 'NONE', 'WORKASPACE' ) );
#40 = FACE_OUTER_BOUND ( 'NONE', #47, .T. ) ;
#41 = PRESENTATION_LAYER_ASSIGNMENT (  '', '', ( #157 ) ) ;
#42 = ADVANCED_FACE ( 'NONE', ( #210 ), #113, .T. ) ;
#43 = ORIENTED_EDGE ( 'NONE', *, *, #84, .T. ) ;
#44 = CARTESIAN_POINT ( 'NONE',  ( 3.122849337825752600E-015, 161.3761669434274500, -25.50000000000001400 ) ) ;
#45 = EDGE_CURVE ( 'NONE', #13, #58, #6, .T. ) ;
#46 = DIRECTION ( 'NONE',  ( 0.0000000000000000000, 0.0000000000000000000, 1.000000000000000000 ) ) ;
#47 = EDGE_LOOP ( 'NONE', ( #198, #76, #232, #199 ) ) ;
#48 = CARTESIAN_POINT ( 'NONE',  ( 25.50000000000001400, 12.69999999999998500, 0.0000000000000000000 ) ) ;
#49 =( NAMED_UNIT ( * ) SI_UNIT ( $, .STERADIAN. ) SOLID_ANGLE_UNIT ( ) );
#50 = DIRECTION ( 'NONE',  ( -0.0000000000000000000, 1.000000000000000000, -0.0000000000000000000 ) ) ;
#51 = DIRECTION ( 'NONE',  ( -0.0000000000000000000, 1.000000000000000000, -0.0000000000000000000 ) ) ;
#52 = SURFACE_STYLE_USAGE ( .BOTH. , #196 ) ;
#53 = ORIENTED_EDGE ( 'NONE', *, *, #178, .T. ) ;
#54 = SURFACE_STYLE_FILL_AREA ( #142 ) ;
#55 = EDGE_CURVE ( 'NONE', #58, #131, #202, .T. ) ;
#56 = ORIENTED_EDGE ( 'NONE', *, *, #45, .F. ) ;
#57 = CIRCLE ( 'NONE', #2, 25.50000000000001400 ) ;
#58 = VERTEX_POINT ( 'NONE', #225 ) ;
#59 = PRESENTATION_STYLE_ASSIGNMENT (( #30 ) ) ;
#60 = ORIENTED_EDGE ( 'NONE', *, *, #103, .T. ) ;
#61 = VECTOR ( 'NONE', #31, 1000.000000000000000 ) ;
#62 = CARTESIAN_POINT ( 'NONE',  ( 0.0000000000000000000, 12.69999999999998900, 0.0000000000000000000 ) ) ;
#63 = VECTOR ( 'NONE', #83, 1000.000000000000000 ) ;
#64 = DIRECTION ( 'NONE',  ( -0.0000000000000000000, 1.000000000000000000, -0.0000000000000000000 ) ) ;
#65 = EDGE_CURVE ( 'NONE', #1, #71, #155, .T. ) ;
#66 = FILL_AREA_STYLE_COLOUR ( '', #174 ) ;
#67 = DIRECTION ( 'NONE',  ( 0.0000000000000000000, 0.0000000000000000000, 1.000000000000000000 ) ) ;
#68 = DIRECTION ( 'NONE',  ( 0.0000000000000000000, 0.0000000000000000000, 1.000000000000000000 ) ) ;
#69 = DIRECTION ( 'NONE',  ( -0.0000000000000000000, 1.000000000000000000, -0.0000000000000000000 ) ) ;
#70 = CARTESIAN_POINT ( 'NONE',  ( 0.0000000000000000000, 161.3761669434274500, 0.0000000000000000000 ) ) ;
#71 = VERTEX_POINT ( 'NONE', #82 ) ;
#72 = PRODUCT_CONTEXT ( 'NONE', #33, 'mechanical' ) ;
#73 = PRODUCT_DEFINITION ( 'Î´Öª', '', #192, #121 ) ;
#74 = FILL_AREA_STYLE ('',( #237 ) ) ;
#75 = UNCERTAINTY_MEASURE_WITH_UNIT (LENGTH_MEASURE( 1.000000000000000100E-005 ), #231, 'distance_accuracy_value', 'NONE');
#76 = ORIENTED_EDGE ( 'NONE', *, *, #45, .T. ) ;
#77 = ORIENTED_EDGE ( 'NONE', *, *, #178, .F. ) ;
#78 = CYLINDRICAL_SURFACE ( 'NONE', #145, 25.50000000000001400 ) ;
#79 = COLOUR_RGB ( '',1.000000000000000000, 1.000000000000000000, 1.000000000000000000 ) ;
#80 = PRODUCT ( '503010', '503010', '', ( #72 ) ) ;
#81 = PRODUCT_RELATED_PRODUCT_CATEGORY ( 'part', '', ( #80 ) ) ;
#82 = CARTESIAN_POINT ( 'NONE',  ( 3.429011037612591600E-015, 12.69999999999998900, -28.00000000000002100 ) ) ;
#83 = DIRECTION ( 'NONE',  ( -0.0000000000000000000, 1.000000000000000000, -0.0000000000000000000 ) ) ;
#84 = EDGE_CURVE ( 'NONE', #131, #58, #148, .T. ) ;
#85 = CARTESIAN_POINT ( 'NONE',  ( 3.429011037612591600E-015, -2.775557561562891400E-014, -28.00000000000002100 ) ) ;
#86 = ORIENTED_EDGE ( 'NONE', *, *, #203, .F. ) ;
#87 = DIRECTION ( 'NONE',  ( 0.0000000000000000000, 0.0000000000000000000, 1.000000000000000000 ) ) ;
#88 = DIRECTION ( 'NONE',  ( -0.0000000000000000000, 1.000000000000000000, -0.0000000000000000000 ) ) ;
#89 = CIRCLE ( 'NONE', #180, 28.00000000000002100 ) ;
#90 = SURFACE_STYLE_USAGE ( .BOTH. , #102 ) ;
#91 = DIRECTION ( 'NONE',  ( -0.0000000000000000000, 1.000000000000000000, -0.0000000000000000000 ) ) ;
#92 = COLOUR_RGB ( '',1.000000000000000000, 1.000000000000000000, 1.000000000000000000 ) ;
#93 = CYLINDRICAL_SURFACE ( 'NONE', #208, 28.00000000000002100 ) ;
#94 = EDGE_CURVE ( 'NONE', #243, #181, #151, .T. ) ;
#95 = FACE_OUTER_BOUND ( 'NONE', #150, .T. ) ;
#96 = MANIFOLD_SOLID_BREP ( 'Ðý×ª1', #172 ) ;
#97 = DIRECTION ( 'NONE',  ( -0.0000000000000000000, 1.000000000000000000, -0.0000000000000000000 ) ) ;
#98 = FACE_OUTER_BOUND ( 'NONE', #140, .T. ) ;
#99 = SURFACE_STYLE_USAGE ( .BOTH. , #136 ) ;
#100 = COLOUR_RGB ( '',1.000000000000000000, 1.000000000000000000, 1.000000000000000000 ) ;
#101 = FILL_AREA_STYLE ('',( #206 ) ) ;
#102 = SURFACE_SIDE_STYLE ('',( #115 ) ) ;
#103 = EDGE_CURVE ( 'NONE', #243, #1, #200, .T. ) ;
#104 = CARTESIAN_POINT ( 'NONE',  ( 0.0000000000000000000, -2.775557561562891400E-014, 0.0000000000000000000 ) ) ;
#105 = CARTESIAN_POINT ( 'NONE',  ( 0.0000000000000000000, -2.775557561562891400E-014, 0.0000000000000000000 ) ) ;
#106 = ORIENTED_EDGE ( 'NONE', *, *, #221, .T. ) ;
#107 = CARTESIAN_POINT ( 'NONE',  ( 0.0000000000000000000, 12.69999999999998900, 0.0000000000000000000 ) ) ;
#108 = FACE_OUTER_BOUND ( 'NONE', #183, .T. ) ;
#109 =( NAMED_UNIT ( * ) SI_UNIT ( $, .STERADIAN. ) SOLID_ANGLE_UNIT ( ) );
#110 = PRESENTATION_STYLE_ASSIGNMENT (( #99 ) ) ;
#111 = AXIS2_PLACEMENT_3D ( 'NONE', #70, #91, #68 ) ;
#112 = EDGE_CURVE ( 'NONE', #181, #243, #153, .T. ) ;
#113 = CYLINDRICAL_SURFACE ( 'NONE', #21, 28.00000000000002100 ) ;
#114 = PRODUCT_DEFINITION_SHAPE ( 'NONE', 'NONE',  #73 ) ;
#115 = SURFACE_STYLE_FILL_AREA ( #162 ) ;
#116 = ADVANCED_BREP_SHAPE_REPRESENTATION ( '503010', ( #96, #19 ), #201 ) ;
#117 = ORIENTED_EDGE ( 'NONE', *, *, #65, .T. ) ;
#118 =( LENGTH_UNIT ( ) NAMED_UNIT ( * ) SI_UNIT ( .MILLI., .METRE. ) );
#119 = SHAPE_DEFINITION_REPRESENTATION ( #114, #116 ) ;
#120 = AXIS2_PLACEMENT_3D ( 'NONE', #138, #143, #32 ) ;
#121 = PRODUCT_DEFINITION_CONTEXT ( 'detailed design', #165, 'design' ) ;
#122 = AXIS2_PLACEMENT_3D ( 'NONE', #26, #88, #11 ) ;
#123 = DIRECTION ( 'NONE',  ( 0.0000000000000000000, 0.0000000000000000000, 1.000000000000000000 ) ) ;
#124 = CARTESIAN_POINT ( 'NONE',  ( 0.0000000000000000000, -2.775557561562891400E-014, 28.00000000000002100 ) ) ;
#125 = SURFACE_SIDE_STYLE ('',( #54 ) ) ;
#126 =( LENGTH_UNIT ( ) NAMED_UNIT ( * ) SI_UNIT ( .MILLI., .METRE. ) );
#127 = DIRECTION ( 'NONE',  ( 0.0000000000000000000, 0.0000000000000000000, 1.000000000000000000 ) ) ;
#128 = VECTOR ( 'NONE', #69, 1000.000000000000000 ) ;
#129 = CARTESIAN_POINT ( 'NONE',  ( 0.0000000000000000000, 161.3761669434274500, 28.00000000000002100 ) ) ;
#130 = CARTESIAN_POINT ( 'NONE',  ( 0.0000000000000000000, -2.775557561562891400E-014, 0.0000000000000000000 ) ) ;
#131 = VERTEX_POINT ( 'NONE', #175 ) ;
#132 = ORIENTED_EDGE ( 'NONE', *, *, #84, .F. ) ;
#133 = FACE_OUTER_BOUND ( 'NONE', #194, .T. ) ;
#134 = ORIENTED_EDGE ( 'NONE', *, *, #65, .F. ) ;
#135 = CYLINDRICAL_SURFACE ( 'NONE', #111, 25.50000000000001400 ) ;
#136 = SURFACE_SIDE_STYLE ('',( #207 ) ) ;
#137 = ADVANCED_FACE ( 'NONE', ( #108, #164 ), #163, .F. ) ;
#138 = CARTESIAN_POINT ( 'NONE',  ( 0.0000000000000000000, -2.775557561562891400E-014, 0.0000000000000000000 ) ) ;
#139 = UNCERTAINTY_MEASURE_WITH_UNIT (LENGTH_MEASURE( 1.000000000000000100E-005 ), #216, 'distance_accuracy_value', 'NONE');
#140 = EDGE_LOOP ( 'NONE', ( #117, #14 ) ) ;
#141 =( NAMED_UNIT ( * ) PLANE_ANGLE_UNIT ( ) SI_UNIT ( $, .RADIAN. ) );
#142 = FILL_AREA_STYLE ('',( #212 ) ) ;
#143 = DIRECTION ( 'NONE',  ( -0.0000000000000000000, 1.000000000000000000, -0.0000000000000000000 ) ) ;
#144 = MECHANICAL_DESIGN_GEOMETRIC_PRESENTATION_REPRESENTATION (  '', ( #244 ), #39 ) ;
#145 = AXIS2_PLACEMENT_3D ( 'NONE', #168, #97, #159 ) ;
#146 = PRESENTATION_STYLE_ASSIGNMENT (( #52 ) ) ;
#147 = ORIENTED_EDGE ( 'NONE', *, *, #94, .F. ) ;
#148 = CIRCLE ( 'NONE', #28, 25.50000000000001400 ) ;
#149 = FACE_BOUND ( 'NONE', #222, .T. ) ;
#150 = EDGE_LOOP ( 'NONE', ( #86, #240, #60, #17 ) ) ;
#151 = CIRCLE ( 'NONE', #219, 28.00000000000002100 ) ;
#152 = EDGE_LOOP ( 'NONE', ( #53, #106 ) ) ;
#153 = CIRCLE ( 'NONE', #185, 28.00000000000002100 ) ;
#154 =( GEOMETRIC_REPRESENTATION_CONTEXT ( 3 ) GLOBAL_UNCERTAINTY_ASSIGNED_CONTEXT ( ( #75 ) ) GLOBAL_UNIT_ASSIGNED_CONTEXT ( ( #231, #141, #29 ) ) REPRESENTATION_CONTEXT ( 'NONE', 'WORKASPACE' ) );
#155 = CIRCLE ( 'NONE', #122, 28.00000000000002100 ) ;
#156 = UNCERTAINTY_MEASURE_WITH_UNIT (LENGTH_MEASURE( 1.000000000000000100E-005 ), #189, 'distance_accuracy_value', 'NONE');
#157 = STYLED_ITEM ( 'NONE', ( #110 ), #24 ) ;
#158 = CARTESIAN_POINT ( 'NONE',  ( 0.0000000000000000000, 0.0000000000000000000, 0.0000000000000000000 ) ) ;
#159 = DIRECTION ( 'NONE',  ( 0.0000000000000000000, 0.0000000000000000000, 1.000000000000000000 ) ) ;
#160 = CARTESIAN_POINT ( 'NONE',  ( 3.429011037612591600E-015, 161.3761669434274500, -28.00000000000002100 ) ) ;
#161 = DIRECTION ( 'NONE',  ( -0.0000000000000000000, 1.000000000000000000, -0.0000000000000000000 ) ) ;
#162 = FILL_AREA_STYLE ('',( #66 ) ) ;
#163 = PLANE ( 'NONE',  #238 ) ;
#164 = FACE_BOUND ( 'NONE', #152, .T. ) ;
#165 = APPLICATION_CONTEXT ( 'automotive_design' ) ;
#166 = STYLED_ITEM ( 'NONE', ( #59 ), #96 ) ;
#167 = EDGE_CURVE ( 'NONE', #179, #131, #22, .T. ) ;
#168 = CARTESIAN_POINT ( 'NONE',  ( 0.0000000000000000000, 161.3761669434274500, 0.0000000000000000000 ) ) ;
#169 = CARTESIAN_POINT ( 'NONE',  ( 0.0000000000000000000, 161.3761669434274500, 0.0000000000000000000 ) ) ;
#170 = ORIENTED_EDGE ( 'NONE', *, *, #55, .F. ) ;
#171 = DIRECTION ( 'NONE',  ( 0.0000000000000000000, -1.000000000000000000, 0.0000000000000000000 ) ) ;
#172 = CLOSED_SHELL ( 'NONE', ( #24, #42, #137, #4, #224, #226 ) ) ;
#173 = DIRECTION ( 'NONE',  ( 0.0000000000000000000, 0.0000000000000000000, 1.000000000000000000 ) ) ;
#174 = COLOUR_RGB ( '',1.000000000000000000, 1.000000000000000000, 1.000000000000000000 ) ;
#175 = CARTESIAN_POINT ( 'NONE',  ( 0.0000000000000000000, 12.69999999999998900, 25.50000000000001400 ) ) ;
#176 = APPLICATION_PROTOCOL_DEFINITION ( 'draft international standard', 'automotive_design', 1998, #165 ) ;
#177 = MECHANICAL_DESIGN_GEOMETRIC_PRESENTATION_REPRESENTATION (  '', ( #166 ), #220 ) ;
#178 = EDGE_CURVE ( 'NONE', #179, #13, #15, .T. ) ;
#179 = VERTEX_POINT ( 'NONE', #214 ) ;
#180 = AXIS2_PLACEMENT_3D ( 'NONE', #107, #64, #190 ) ;
#181 = VERTEX_POINT ( 'NONE', #85 ) ;
#182 = ORIENTED_EDGE ( 'NONE', *, *, #94, .T. ) ;
#183 = EDGE_LOOP ( 'NONE', ( #147, #197 ) ) ;
#184 = CARTESIAN_POINT ( 'NONE',  ( 0.0000000000000000000, 12.69999999999998900, 28.00000000000002100 ) ) ;
#185 = AXIS2_PLACEMENT_3D ( 'NONE', #130, #211, #9 ) ;
#186 = DIRECTION ( 'NONE',  ( 0.0000000000000000000, 0.0000000000000000000, 1.000000000000000000 ) ) ;
#187 = SURFACE_STYLE_FILL_AREA ( #74 ) ;
#188 = CARTESIAN_POINT ( 'NONE',  ( 0.0000000000000000000, 161.3761669434274500, 0.0000000000000000000 ) ) ;
#189 =( LENGTH_UNIT ( ) NAMED_UNIT ( * ) SI_UNIT ( .MILLI., .METRE. ) );
#190 = DIRECTION ( 'NONE',  ( 0.0000000000000000000, 0.0000000000000000000, 1.000000000000000000 ) ) ;
#191 = DIRECTION ( 'NONE',  ( -0.0000000000000000000, 1.000000000000000000, 0.0000000000000000000 ) ) ;
#192 = PRODUCT_DEFINITION_FORMATION_WITH_SPECIFIED_SOURCE ( 'ÈÎºÎ', '', #80, .NOT_KNOWN. ) ;
#193 = EDGE_LOOP ( 'NONE', ( #182, #37, #134, #218 ) ) ;
#194 = EDGE_LOOP ( 'NONE', ( #56, #77, #242, #43 ) ) ;
#195 = VECTOR ( 'NONE', #50, 1000.000000000000000 ) ;
#196 = SURFACE_SIDE_STYLE ('',( #187 ) ) ;
#197 = ORIENTED_EDGE ( 'NONE', *, *, #112, .F. ) ;
#198 = ORIENTED_EDGE ( 'NONE', *, *, #221, .F. ) ;
#199 = ORIENTED_EDGE ( 'NONE', *, *, #167, .F. ) ;
#200 = LINE ( 'NONE', #129, #61 ) ;
#201 =( GEOMETRIC_REPRESENTATION_CONTEXT ( 3 ) GLOBAL_UNCERTAINTY_ASSIGNED_CONTEXT ( ( #204 ) ) GLOBAL_UNIT_ASSIGNED_CONTEXT ( ( #126, #236, #10 ) ) REPRESENTATION_CONTEXT ( 'NONE', 'WORKASPACE' ) );
#202 = CIRCLE ( 'NONE', #36, 25.50000000000001400 ) ;
#203 = EDGE_CURVE ( 'NONE', #181, #71, #223, .T. ) ;
#204 = UNCERTAINTY_MEASURE_WITH_UNIT (LENGTH_MEASURE( 1.000000000000000100E-005 ), #126, 'distance_accuracy_value', 'NONE');
#205 = MECHANICAL_DESIGN_GEOMETRIC_PRESENTATION_REPRESENTATION (  '', ( #228 ), #154 ) ;
#206 = FILL_AREA_STYLE_COLOUR ( '', #79 ) ;
#207 = SURFACE_STYLE_FILL_AREA ( #101 ) ;
#208 = AXIS2_PLACEMENT_3D ( 'NONE', #188, #209, #87 ) ;
#209 = DIRECTION ( 'NONE',  ( -0.0000000000000000000, 1.000000000000000000, -0.0000000000000000000 ) ) ;
#210 = FACE_OUTER_BOUND ( 'NONE', #193, .T. ) ;
#211 = DIRECTION ( 'NONE',  ( -0.0000000000000000000, 1.000000000000000000, -0.0000000000000000000 ) ) ;
#212 = FILL_AREA_STYLE_COLOUR ( '', #100 ) ;
#213 = DIRECTION ( 'NONE',  ( -0.0000000000000000000, 1.000000000000000000, -0.0000000000000000000 ) ) ;
#214 = CARTESIAN_POINT ( 'NONE',  ( 0.0000000000000000000, -2.775557561562891400E-014, 25.50000000000001400 ) ) ;
#215 = CARTESIAN_POINT ( 'NONE',  ( 0.0000000000000000000, 161.3761669434274500, 25.50000000000001400 ) ) ;
#216 =( LENGTH_UNIT ( ) NAMED_UNIT ( * ) SI_UNIT ( .MILLI., .METRE. ) );
#217 = PRESENTATION_LAYER_ASSIGNMENT (  '', '', ( #166 ) ) ;
#218 = ORIENTED_EDGE ( 'NONE', *, *, #103, .F. ) ;
#219 = AXIS2_PLACEMENT_3D ( 'NONE', #104, #161, #67 ) ;
#220 =( GEOMETRIC_REPRESENTATION_CONTEXT ( 3 ) GLOBAL_UNCERTAINTY_ASSIGNED_CONTEXT ( ( #156 ) ) GLOBAL_UNIT_ASSIGNED_CONTEXT ( ( #189, #235, #49 ) ) REPRESENTATION_CONTEXT ( 'NONE', 'WORKASPACE' ) );
#221 = EDGE_CURVE ( 'NONE', #13, #179, #57, .T. ) ;
#222 = EDGE_LOOP ( 'NONE', ( #132, #170 ) ) ;
#223 = LINE ( 'NONE', #160, #128 ) ;
#224 = ADVANCED_FACE ( 'NONE', ( #149, #98 ), #234, .F. ) ;
#225 = CARTESIAN_POINT ( 'NONE',  ( 3.122849337825752600E-015, 12.69999999999998900, -25.50000000000001400 ) ) ;
#226 = ADVANCED_FACE ( 'NONE', ( #133 ), #135, .F. ) ;
#227 = DIRECTION ( 'NONE',  ( -0.0000000000000000000, 1.000000000000000000, -0.0000000000000000000 ) ) ;
#228 = STYLED_ITEM ( 'NONE', ( #38 ), #226 ) ;
#229 = CARTESIAN_POINT ( 'NONE',  ( 3.122849337825752600E-015, -2.775557561562891400E-014, -25.50000000000001400 ) ) ;
#230 = EDGE_CURVE ( 'NONE', #71, #1, #89, .T. ) ;
#231 =( LENGTH_UNIT ( ) NAMED_UNIT ( * ) SI_UNIT ( .MILLI., .METRE. ) );
#232 = ORIENTED_EDGE ( 'NONE', *, *, #55, .T. ) ;
#233 = CARTESIAN_POINT ( 'NONE',  ( 0.0000000000000000000, 12.69999999999998900, 0.0000000000000000000 ) ) ;
#234 = PLANE ( 'NONE',  #20 ) ;
#235 =( NAMED_UNIT ( * ) PLANE_ANGLE_UNIT ( ) SI_UNIT ( $, .RADIAN. ) );
#236 =( NAMED_UNIT ( * ) PLANE_ANGLE_UNIT ( ) SI_UNIT ( $, .RADIAN. ) );
#237 = FILL_AREA_STYLE_COLOUR ( '', #92 ) ;
#238 = AXIS2_PLACEMENT_3D ( 'NONE', #12, #191, #173 ) ;
#239 = DIRECTION ( 'NONE',  ( 1.000000000000000000, 0.0000000000000000000, 0.0000000000000000000 ) ) ;
#240 = ORIENTED_EDGE ( 'NONE', *, *, #112, .T. ) ;
#241 = MECHANICAL_DESIGN_GEOMETRIC_PRESENTATION_REPRESENTATION (  '', ( #157 ), #5 ) ;
#242 = ORIENTED_EDGE ( 'NONE', *, *, #167, .T. ) ;
#243 = VERTEX_POINT ( 'NONE', #124 ) ;
#244 = STYLED_ITEM ( 'NONE', ( #146 ), #116 ) ;
ENDSEC;
END-ISO-10303-21;
