ISO-10303-21;
HEADER;
FILE_DESCRIPTION (( 'STEP AP214' ),
    '1' );
FILE_NAME ('503029.STEP',
    '2019-09-05T06:45:42',
    ( '' ),
    ( '' ),
    'SwSTEP 2.0',
    'SolidWorks 2016',
    '' );
FILE_SCHEMA (( 'AUTOMOTIVE_DESIGN' ));
ENDSEC;

DATA;
#1 = MECHANICAL_DESIGN_GEOMETRIC_PRESENTATION_REPRESENTATION (  '', ( #49 ), #102 ) ;
#2 = CIRCLE ( 'NONE', #24, 25.40000000000002000 ) ;
#3 = AXIS2_PLACEMENT_3D ( 'NONE', #223, #201, #33 ) ;
#4 = FACE_OUTER_BOUND ( 'NONE', #90, .T. ) ;
#5 = ORIENTED_EDGE ( 'NONE', *, *, #92, .T. ) ;
#6 = CARTESIAN_POINT ( 'NONE',  ( 0.0000000000000000000, 50.79999999999998300, 0.0000000000000000000 ) ) ;
#7 =( GEOMETRIC_REPRESENTATION_CONTEXT ( 3 ) GLOBAL_UNCERTAINTY_ASSIGNED_CONTEXT ( ( #94 ) ) GLOBAL_UNIT_ASSIGNED_CONTEXT ( ( #194, #159, #97 ) ) REPRESENTATION_CONTEXT ( 'NONE', 'WORKASPACE' ) );
#8 = DIRECTION ( 'NONE',  ( -0.0000000000000000000, 1.000000000000000000, -0.0000000000000000000 ) ) ;
#9 = VECTOR ( 'NONE', #95, 1000.000000000000000 ) ;
#10 = ORIENTED_EDGE ( 'NONE', *, *, #187, .F. ) ;
#11 = DIRECTION ( 'NONE',  ( -0.0000000000000000000, 1.000000000000000000, -0.0000000000000000000 ) ) ;
#12 = CARTESIAN_POINT ( 'NONE',  ( 0.0000000000000000000, -2.775557561562891400E-014, 0.0000000000000000000 ) ) ;
#13 = SURFACE_SIDE_STYLE ('',( #234 ) ) ;
#14 = EDGE_CURVE ( 'NONE', #134, #230, #89, .T. ) ;
#15 = FILL_AREA_STYLE ('',( #160 ) ) ;
#16 = PRESENTATION_STYLE_ASSIGNMENT (( #242 ) ) ;
#17 = DIRECTION ( 'NONE',  ( -0.0000000000000000000, 1.000000000000000000, -0.0000000000000000000 ) ) ;
#18 = CARTESIAN_POINT ( 'NONE',  ( 0.0000000000000000000, 0.0000000000000000000, 0.0000000000000000000 ) ) ;
#19 = EDGE_LOOP ( 'NONE', ( #10, #133, #77, #141 ) ) ;
#20 = FILL_AREA_STYLE ('',( #225 ) ) ;
#21 = AXIS2_PLACEMENT_3D ( 'NONE', #12, #241, #177 ) ;
#22 = VECTOR ( 'NONE', #66, 1000.000000000000000 ) ;
#23 = UNCERTAINTY_MEASURE_WITH_UNIT (LENGTH_MEASURE( 1.000000000000000100E-005 ), #52, 'distance_accuracy_value', 'NONE');
#24 = AXIS2_PLACEMENT_3D ( 'NONE', #198, #83, #47 ) ;
#25 = PRODUCT_DEFINITION_SHAPE ( 'NONE', 'NONE',  #192 ) ;
#26 = CARTESIAN_POINT ( 'NONE',  ( 2.510525938252076500E-015, -2.775557561562891400E-014, -20.50000000000002100 ) ) ;
#27 = PRESENTATION_STYLE_ASSIGNMENT (( #244 ) ) ;
#28 = CARTESIAN_POINT ( 'NONE',  ( 3.110602869834279600E-015, 50.79999999999998300, -25.40000000000002000 ) ) ;
#29 = ORIENTED_EDGE ( 'NONE', *, *, #136, .T. ) ;
#30 =( NAMED_UNIT ( * ) PLANE_ANGLE_UNIT ( ) SI_UNIT ( $, .RADIAN. ) );
#31 = DIRECTION ( 'NONE',  ( -0.0000000000000000000, 1.000000000000000000, -0.0000000000000000000 ) ) ;
#32 = ORIENTED_EDGE ( 'NONE', *, *, #92, .F. ) ;
#33 = DIRECTION ( 'NONE',  ( 0.0000000000000000000, -0.0000000000000000000, -1.000000000000000000 ) ) ;
#34 = AXIS2_PLACEMENT_3D ( 'NONE', #96, #156, #46 ) ;
#35 = VERTEX_POINT ( 'NONE', #233 ) ;
#36 = PRODUCT_DEFINITION_FORMATION_WITH_SPECIFIED_SOURCE ( 'ÈÎºÎ', '', #178, .NOT_KNOWN. ) ;
#37 =( NAMED_UNIT ( * ) PLANE_ANGLE_UNIT ( ) SI_UNIT ( $, .RADIAN. ) );
#38 = CARTESIAN_POINT ( 'NONE',  ( 3.110602869834279600E-015, -2.775557561562891400E-014, -25.40000000000002000 ) ) ;
#39 = EDGE_LOOP ( 'NONE', ( #5, #172 ) ) ;
#40 = CIRCLE ( 'NONE', #71, 25.40000000000002000 ) ;
#41 = EDGE_LOOP ( 'NONE', ( #168, #189, #45, #179 ) ) ;
#42 = ORIENTED_EDGE ( 'NONE', *, *, #108, .F. ) ;
#43 = ADVANCED_FACE ( 'NONE', ( #204 ), #231, .T. ) ;
#44 = STYLED_ITEM ( 'NONE', ( #132 ), #137 ) ;
#45 = ORIENTED_EDGE ( 'NONE', *, *, #108, .T. ) ;
#46 = DIRECTION ( 'NONE',  ( 0.0000000000000000000, 0.0000000000000000000, 1.000000000000000000 ) ) ;
#47 = DIRECTION ( 'NONE',  ( 0.0000000000000000000, 0.0000000000000000000, 1.000000000000000000 ) ) ;
#48 = ADVANCED_BREP_SHAPE_REPRESENTATION ( '503029', ( #111, #130 ), #131 ) ;
#49 = STYLED_ITEM ( 'NONE', ( #27 ), #48 ) ;
#50 = COLOUR_RGB ( '',1.000000000000000000, 1.000000000000000000, 1.000000000000000000 ) ;
#51 = FACE_BOUND ( 'NONE', #149, .T. ) ;
#52 =( LENGTH_UNIT ( ) NAMED_UNIT ( * ) SI_UNIT ( .MILLI., .METRE. ) );
#53 = CARTESIAN_POINT ( 'NONE',  ( 0.0000000000000000000, -2.775557561562891400E-014, 25.40000000000002000 ) ) ;
#54 = CARTESIAN_POINT ( 'NONE',  ( 3.110602869834279600E-015, 161.3761669434274500, -25.40000000000002000 ) ) ;
#55 = APPLICATION_CONTEXT ( 'automotive_design' ) ;
#56 = APPLICATION_PROTOCOL_DEFINITION ( 'draft international standard', 'automotive_design', 1998, #55 ) ;
#57 = AXIS2_PLACEMENT_3D ( 'NONE', #180, #197, #119 ) ;
#58 = VERTEX_POINT ( 'NONE', #28 ) ;
#59 = SURFACE_STYLE_FILL_AREA ( #218 ) ;
#60 = CARTESIAN_POINT ( 'NONE',  ( 0.0000000000000000000, 161.3761669434274500, 0.0000000000000000000 ) ) ;
#61 = AXIS2_PLACEMENT_3D ( 'NONE', #67, #11, #79 ) ;
#62 = ORIENTED_EDGE ( 'NONE', *, *, #184, .F. ) ;
#63 = CARTESIAN_POINT ( 'NONE',  ( 0.0000000000000000000, -2.775557561562891400E-014, 20.50000000000002100 ) ) ;
#64 = ADVANCED_FACE ( 'NONE', ( #239, #51 ), #215, .F. ) ;
#65 = EDGE_CURVE ( 'NONE', #153, #230, #74, .T. ) ;
#66 = DIRECTION ( 'NONE',  ( -0.0000000000000000000, 1.000000000000000000, -0.0000000000000000000 ) ) ;
#67 = CARTESIAN_POINT ( 'NONE',  ( 0.0000000000000000000, 161.3761669434274500, 0.0000000000000000000 ) ) ;
#68 = MECHANICAL_DESIGN_GEOMETRIC_PRESENTATION_REPRESENTATION (  '', ( #155 ), #86 ) ;
#69 = CARTESIAN_POINT ( 'NONE',  ( 0.0000000000000000000, 50.79999999999998300, 20.50000000000001400 ) ) ;
#70 = PRESENTATION_LAYER_ASSIGNMENT (  '', '', ( #44 ) ) ;
#71 = AXIS2_PLACEMENT_3D ( 'NONE', #158, #173, #235 ) ;
#72 = DIRECTION ( 'NONE',  ( 0.0000000000000000000, 0.0000000000000000000, 1.000000000000000000 ) ) ;
#73 = UNCERTAINTY_MEASURE_WITH_UNIT (LENGTH_MEASURE( 1.000000000000000100E-005 ), #147, 'distance_accuracy_value', 'NONE');
#74 = LINE ( 'NONE', #193, #9 ) ;
#75 = DIRECTION ( 'NONE',  ( 0.0000000000000000000, 0.0000000000000000000, 1.000000000000000000 ) ) ;
#76 =( GEOMETRIC_REPRESENTATION_CONTEXT ( 3 ) GLOBAL_UNCERTAINTY_ASSIGNED_CONTEXT ( ( #23 ) ) GLOBAL_UNIT_ASSIGNED_CONTEXT ( ( #52, #30, #118 ) ) REPRESENTATION_CONTEXT ( 'NONE', 'WORKASPACE' ) );
#77 = ORIENTED_EDGE ( 'NONE', *, *, #14, .T. ) ;
#78 = CARTESIAN_POINT ( 'NONE',  ( 0.0000000000000000000, -2.775557561562891400E-014, 0.0000000000000000000 ) ) ;
#79 = DIRECTION ( 'NONE',  ( 0.0000000000000000000, 0.0000000000000000000, 1.000000000000000000 ) ) ;
#80 = FILL_AREA_STYLE_COLOUR ( '', #229 ) ;
#81 = PRODUCT_DEFINITION_CONTEXT ( 'detailed design', #162, 'design' ) ;
#82 = CARTESIAN_POINT ( 'NONE',  ( 0.0000000000000000000, 50.79999999999998300, 0.0000000000000000000 ) ) ;
#83 = DIRECTION ( 'NONE',  ( -0.0000000000000000000, 1.000000000000000000, -0.0000000000000000000 ) ) ;
#84 = DIRECTION ( 'NONE',  ( -0.0000000000000000000, 1.000000000000000000, -0.0000000000000000000 ) ) ;
#85 = ORIENTED_EDGE ( 'NONE', *, *, #65, .T. ) ;
#86 =( GEOMETRIC_REPRESENTATION_CONTEXT ( 3 ) GLOBAL_UNCERTAINTY_ASSIGNED_CONTEXT ( ( #166 ) ) GLOBAL_UNIT_ASSIGNED_CONTEXT ( ( #143, #37, #128 ) ) REPRESENTATION_CONTEXT ( 'NONE', 'WORKASPACE' ) );
#87 =( NAMED_UNIT ( * ) SI_UNIT ( $, .STERADIAN. ) SOLID_ANGLE_UNIT ( ) );
#88 = VECTOR ( 'NONE', #84, 1000.000000000000000 ) ;
#89 = CIRCLE ( 'NONE', #150, 20.50000000000001400 ) ;
#90 = EDGE_LOOP ( 'NONE', ( #145, #186, #32, #42 ) ) ;
#91 = AXIS2_PLACEMENT_3D ( 'NONE', #78, #17, #236 ) ;
#92 = EDGE_CURVE ( 'NONE', #35, #58, #40, .T. ) ;
#93 = ORIENTED_EDGE ( 'NONE', *, *, #100, .F. ) ;
#94 = UNCERTAINTY_MEASURE_WITH_UNIT (LENGTH_MEASURE( 1.000000000000000100E-005 ), #194, 'distance_accuracy_value', 'NONE');
#95 = DIRECTION ( 'NONE',  ( -0.0000000000000000000, 1.000000000000000000, -0.0000000000000000000 ) ) ;
#96 = CARTESIAN_POINT ( 'NONE',  ( 20.50000000000002100, -1.424099456732195600E-014, 0.0000000000000000000 ) ) ;
#97 =( NAMED_UNIT ( * ) SI_UNIT ( $, .STERADIAN. ) SOLID_ANGLE_UNIT ( ) );
#98 = ORIENTED_EDGE ( 'NONE', *, *, #165, .F. ) ;
#99 = DIRECTION ( 'NONE',  ( 0.0000000000000000000, 0.0000000000000000000, 1.000000000000000000 ) ) ;
#100 = EDGE_CURVE ( 'NONE', #208, #163, #112, .T. ) ;
#101 = SURFACE_SIDE_STYLE ('',( #59 ) ) ;
#102 =( GEOMETRIC_REPRESENTATION_CONTEXT ( 3 ) GLOBAL_UNCERTAINTY_ASSIGNED_CONTEXT ( ( #73 ) ) GLOBAL_UNIT_ASSIGNED_CONTEXT ( ( #147, #107, #224 ) ) REPRESENTATION_CONTEXT ( 'NONE', 'WORKASPACE' ) );
#103 = CARTESIAN_POINT ( 'NONE',  ( 0.0000000000000000000, 161.3761669434274500, 0.0000000000000000000 ) ) ;
#104 = MECHANICAL_DESIGN_GEOMETRIC_PRESENTATION_REPRESENTATION (  '', ( #44 ), #76 ) ;
#105 =( LENGTH_UNIT ( ) NAMED_UNIT ( * ) SI_UNIT ( .MILLI., .METRE. ) );
#106 = PRESENTATION_LAYER_ASSIGNMENT (  '', '', ( #49 ) ) ;
#107 =( NAMED_UNIT ( * ) PLANE_ANGLE_UNIT ( ) SI_UNIT ( $, .RADIAN. ) );
#108 = EDGE_CURVE ( 'NONE', #163, #35, #203, .T. ) ;
#109 = CYLINDRICAL_SURFACE ( 'NONE', #57, 20.50000000000001800 ) ;
#110 = VERTEX_POINT ( 'NONE', #26 ) ;
#111 = MANIFOLD_SOLID_BREP ( 'Ðý×ª1', #129 ) ;
#112 = CIRCLE ( 'NONE', #212, 25.40000000000002000 ) ;
#113 = AXIS2_PLACEMENT_3D ( 'NONE', #82, #217, #219 ) ;
#114 = CARTESIAN_POINT ( 'NONE',  ( 0.0000000000000000000, 161.3761669434274500, 25.40000000000002000 ) ) ;
#115 = SURFACE_STYLE_FILL_AREA ( #15 ) ;
#116 = ORIENTED_EDGE ( 'NONE', *, *, #184, .T. ) ;
#117 = AXIS2_PLACEMENT_3D ( 'NONE', #175, #240, #99 ) ;
#118 =( NAMED_UNIT ( * ) SI_UNIT ( $, .STERADIAN. ) SOLID_ANGLE_UNIT ( ) );
#119 = DIRECTION ( 'NONE',  ( 0.0000000000000000000, 0.0000000000000000000, 1.000000000000000000 ) ) ;
#120 = COLOUR_RGB ( '',1.000000000000000000, 1.000000000000000000, 1.000000000000000000 ) ;
#121 = SURFACE_STYLE_USAGE ( .BOTH. , #13 ) ;
#122 = ORIENTED_EDGE ( 'NONE', *, *, #136, .F. ) ;
#123 = FILL_AREA_STYLE_COLOUR ( '', #50 ) ;
#124 = EDGE_CURVE ( 'NONE', #58, #35, #2, .T. ) ;
#125 = FILL_AREA_STYLE ('',( #123 ) ) ;
#126 = ORIENTED_EDGE ( 'NONE', *, *, #200, .F. ) ;
#127 = PLANE ( 'NONE',  #3 ) ;
#128 =( NAMED_UNIT ( * ) SI_UNIT ( $, .STERADIAN. ) SOLID_ANGLE_UNIT ( ) );
#129 = CLOSED_SHELL ( 'NONE', ( #207, #157, #64, #43, #211, #137 ) ) ;
#130 = AXIS2_PLACEMENT_3D ( 'NONE', #18, #164, #183 ) ;
#131 =( GEOMETRIC_REPRESENTATION_CONTEXT ( 3 ) GLOBAL_UNCERTAINTY_ASSIGNED_CONTEXT ( ( #142 ) ) GLOBAL_UNIT_ASSIGNED_CONTEXT ( ( #105, #205, #87 ) ) REPRESENTATION_CONTEXT ( 'NONE', 'WORKASPACE' ) );
#132 = PRESENTATION_STYLE_ASSIGNMENT (( #174 ) ) ;
#133 = ORIENTED_EDGE ( 'NONE', *, *, #200, .T. ) ;
#134 = VERTEX_POINT ( 'NONE', #221 ) ;
#135 = AXIS2_PLACEMENT_3D ( 'NONE', #103, #31, #72 ) ;
#136 = EDGE_CURVE ( 'NONE', #153, #110, #144, .T. ) ;
#137 = ADVANCED_FACE ( 'NONE', ( #151 ), #109, .F. ) ;
#138 = CIRCLE ( 'NONE', #91, 25.40000000000002000 ) ;
#139 = CARTESIAN_POINT ( 'NONE',  ( 0.0000000000000000000, -2.775557561562891400E-014, 0.0000000000000000000 ) ) ;
#140 = CYLINDRICAL_SURFACE ( 'NONE', #135, 20.50000000000001800 ) ;
#141 = ORIENTED_EDGE ( 'NONE', *, *, #65, .F. ) ;
#142 = UNCERTAINTY_MEASURE_WITH_UNIT (LENGTH_MEASURE( 1.000000000000000100E-005 ), #105, 'distance_accuracy_value', 'NONE');
#143 =( LENGTH_UNIT ( ) NAMED_UNIT ( * ) SI_UNIT ( .MILLI., .METRE. ) );
#144 = CIRCLE ( 'NONE', #117, 20.50000000000002100 ) ;
#145 = ORIENTED_EDGE ( 'NONE', *, *, #165, .T. ) ;
#146 = PRODUCT_CONTEXT ( 'NONE', #55, 'mechanical' ) ;
#147 =( LENGTH_UNIT ( ) NAMED_UNIT ( * ) SI_UNIT ( .MILLI., .METRE. ) );
#148 = CIRCLE ( 'NONE', #21, 20.50000000000002100 ) ;
#149 = EDGE_LOOP ( 'NONE', ( #29, #196 ) ) ;
#150 = AXIS2_PLACEMENT_3D ( 'NONE', #6, #190, #213 ) ;
#151 = FACE_OUTER_BOUND ( 'NONE', #216, .T. ) ;
#152 = PRESENTATION_LAYER_ASSIGNMENT (  '', '', ( #155 ) ) ;
#153 = VERTEX_POINT ( 'NONE', #63 ) ;
#154 = DIRECTION ( 'NONE',  ( 0.0000000000000000000, 0.0000000000000000000, 1.000000000000000000 ) ) ;
#155 = STYLED_ITEM ( 'NONE', ( #16 ), #207 ) ;
#156 = DIRECTION ( 'NONE',  ( -0.0000000000000000000, 1.000000000000000000, 0.0000000000000000000 ) ) ;
#157 = ADVANCED_FACE ( 'NONE', ( #4 ), #171, .T. ) ;
#158 = CARTESIAN_POINT ( 'NONE',  ( 0.0000000000000000000, 50.79999999999998300, 0.0000000000000000000 ) ) ;
#159 =( NAMED_UNIT ( * ) PLANE_ANGLE_UNIT ( ) SI_UNIT ( $, .RADIAN. ) );
#160 = FILL_AREA_STYLE_COLOUR ( '', #161 ) ;
#161 = COLOUR_RGB ( '',1.000000000000000000, 1.000000000000000000, 1.000000000000000000 ) ;
#162 = APPLICATION_CONTEXT ( 'automotive_design' ) ;
#163 = VERTEX_POINT ( 'NONE', #53 ) ;
#164 = DIRECTION ( 'NONE',  ( 0.0000000000000000000, 0.0000000000000000000, 1.000000000000000000 ) ) ;
#165 = EDGE_CURVE ( 'NONE', #163, #208, #138, .T. ) ;
#166 = UNCERTAINTY_MEASURE_WITH_UNIT (LENGTH_MEASURE( 1.000000000000000100E-005 ), #143, 'distance_accuracy_value', 'NONE');
#167 = VECTOR ( 'NONE', #8, 1000.000000000000000 ) ;
#168 = ORIENTED_EDGE ( 'NONE', *, *, #232, .F. ) ;
#169 = MECHANICAL_DESIGN_GEOMETRIC_PRESENTATION_REPRESENTATION (  '', ( #227 ), #7 ) ;
#170 = DIRECTION ( 'NONE',  ( -0.0000000000000000000, 1.000000000000000000, -0.0000000000000000000 ) ) ;
#171 = CYLINDRICAL_SURFACE ( 'NONE', #61, 25.40000000000002000 ) ;
#172 = ORIENTED_EDGE ( 'NONE', *, *, #124, .T. ) ;
#173 = DIRECTION ( 'NONE',  ( -0.0000000000000000000, 1.000000000000000000, -0.0000000000000000000 ) ) ;
#174 = SURFACE_STYLE_USAGE ( .BOTH. , #238 ) ;
#175 = CARTESIAN_POINT ( 'NONE',  ( 0.0000000000000000000, -2.775557561562891400E-014, 0.0000000000000000000 ) ) ;
#176 = SHAPE_DEFINITION_REPRESENTATION ( #25, #48 ) ;
#177 = DIRECTION ( 'NONE',  ( 0.0000000000000000000, 0.0000000000000000000, 1.000000000000000000 ) ) ;
#178 = PRODUCT ( '503029', '503029', '', ( #146 ) ) ;
#179 = ORIENTED_EDGE ( 'NONE', *, *, #124, .F. ) ;
#180 = CARTESIAN_POINT ( 'NONE',  ( 0.0000000000000000000, 161.3761669434274500, 0.0000000000000000000 ) ) ;
#181 = CARTESIAN_POINT ( 'NONE',  ( 2.510525938252076100E-015, 161.3761669434274500, -20.50000000000001800 ) ) ;
#182 = EDGE_LOOP ( 'NONE', ( #62, #226 ) ) ;
#183 = DIRECTION ( 'NONE',  ( 1.000000000000000000, 0.0000000000000000000, 0.0000000000000000000 ) ) ;
#184 = EDGE_CURVE ( 'NONE', #230, #134, #206, .T. ) ;
#185 = APPLICATION_PROTOCOL_DEFINITION ( 'draft international standard', 'automotive_design', 1998, #162 ) ;
#186 = ORIENTED_EDGE ( 'NONE', *, *, #232, .T. ) ;
#187 = EDGE_CURVE ( 'NONE', #110, #153, #148, .T. ) ;
#188 = PRESENTATION_STYLE_ASSIGNMENT (( #121 ) ) ;
#189 = ORIENTED_EDGE ( 'NONE', *, *, #100, .T. ) ;
#190 = DIRECTION ( 'NONE',  ( -0.0000000000000000000, 1.000000000000000000, -0.0000000000000000000 ) ) ;
#191 = DIRECTION ( 'NONE',  ( -0.0000000000000000000, 1.000000000000000000, -0.0000000000000000000 ) ) ;
#192 = PRODUCT_DEFINITION ( 'Î´Öª', '', #36, #81 ) ;
#193 = CARTESIAN_POINT ( 'NONE',  ( 0.0000000000000000000, 161.3761669434274500, 20.50000000000001800 ) ) ;
#194 =( LENGTH_UNIT ( ) NAMED_UNIT ( * ) SI_UNIT ( .MILLI., .METRE. ) );
#195 = LINE ( 'NONE', #181, #22 ) ;
#196 = ORIENTED_EDGE ( 'NONE', *, *, #187, .T. ) ;
#197 = DIRECTION ( 'NONE',  ( -0.0000000000000000000, 1.000000000000000000, -0.0000000000000000000 ) ) ;
#198 = CARTESIAN_POINT ( 'NONE',  ( 0.0000000000000000000, 50.79999999999998300, 0.0000000000000000000 ) ) ;
#199 = FACE_BOUND ( 'NONE', #182, .T. ) ;
#200 = EDGE_CURVE ( 'NONE', #110, #134, #195, .T. ) ;
#201 = DIRECTION ( 'NONE',  ( 0.0000000000000000000, -1.000000000000000000, 0.0000000000000000000 ) ) ;
#202 = SURFACE_SIDE_STYLE ('',( #209 ) ) ;
#203 = LINE ( 'NONE', #114, #167 ) ;
#204 = FACE_OUTER_BOUND ( 'NONE', #41, .T. ) ;
#205 =( NAMED_UNIT ( * ) PLANE_ANGLE_UNIT ( ) SI_UNIT ( $, .RADIAN. ) );
#206 = CIRCLE ( 'NONE', #113, 20.50000000000001400 ) ;
#207 = ADVANCED_FACE ( 'NONE', ( #210 ), #140, .F. ) ;
#208 = VERTEX_POINT ( 'NONE', #38 ) ;
#209 = SURFACE_STYLE_FILL_AREA ( #20 ) ;
#210 = FACE_OUTER_BOUND ( 'NONE', #19, .T. ) ;
#211 = ADVANCED_FACE ( 'NONE', ( #199, #214 ), #127, .F. ) ;
#212 = AXIS2_PLACEMENT_3D ( 'NONE', #139, #170, #154 ) ;
#213 = DIRECTION ( 'NONE',  ( 0.0000000000000000000, 0.0000000000000000000, 1.000000000000000000 ) ) ;
#214 = FACE_OUTER_BOUND ( 'NONE', #39, .T. ) ;
#215 = PLANE ( 'NONE',  #34 ) ;
#216 = EDGE_LOOP ( 'NONE', ( #126, #122, #85, #116 ) ) ;
#217 = DIRECTION ( 'NONE',  ( -0.0000000000000000000, 1.000000000000000000, -0.0000000000000000000 ) ) ;
#218 = FILL_AREA_STYLE ('',( #80 ) ) ;
#219 = DIRECTION ( 'NONE',  ( 0.0000000000000000000, 0.0000000000000000000, 1.000000000000000000 ) ) ;
#220 = PRODUCT_RELATED_PRODUCT_CATEGORY ( 'part', '', ( #178 ) ) ;
#221 = CARTESIAN_POINT ( 'NONE',  ( 2.510525938252075700E-015, 50.79999999999998300, -20.50000000000001400 ) ) ;
#222 = EDGE_LOOP ( 'NONE', ( #98, #93 ) ) ;
#223 = CARTESIAN_POINT ( 'NONE',  ( 20.50000000000001400, 50.79999999999998300, 0.0000000000000000000 ) ) ;
#224 =( NAMED_UNIT ( * ) SI_UNIT ( $, .STERADIAN. ) SOLID_ANGLE_UNIT ( ) );
#225 = FILL_AREA_STYLE_COLOUR ( '', #120 ) ;
#226 = ORIENTED_EDGE ( 'NONE', *, *, #14, .F. ) ;
#227 = STYLED_ITEM ( 'NONE', ( #188 ), #111 ) ;
#228 = LINE ( 'NONE', #54, #88 ) ;
#229 = COLOUR_RGB ( '',1.000000000000000000, 1.000000000000000000, 1.000000000000000000 ) ;
#230 = VERTEX_POINT ( 'NONE', #69 ) ;
#231 = CYLINDRICAL_SURFACE ( 'NONE', #237, 25.40000000000002000 ) ;
#232 = EDGE_CURVE ( 'NONE', #208, #58, #228, .T. ) ;
#233 = CARTESIAN_POINT ( 'NONE',  ( 0.0000000000000000000, 50.79999999999998300, 25.40000000000002000 ) ) ;
#234 = SURFACE_STYLE_FILL_AREA ( #125 ) ;
#235 = DIRECTION ( 'NONE',  ( 0.0000000000000000000, 0.0000000000000000000, 1.000000000000000000 ) ) ;
#236 = DIRECTION ( 'NONE',  ( 0.0000000000000000000, 0.0000000000000000000, 1.000000000000000000 ) ) ;
#237 = AXIS2_PLACEMENT_3D ( 'NONE', #60, #191, #75 ) ;
#238 = SURFACE_SIDE_STYLE ('',( #115 ) ) ;
#239 = FACE_OUTER_BOUND ( 'NONE', #222, .T. ) ;
#240 = DIRECTION ( 'NONE',  ( -0.0000000000000000000, 1.000000000000000000, -0.0000000000000000000 ) ) ;
#241 = DIRECTION ( 'NONE',  ( -0.0000000000000000000, 1.000000000000000000, -0.0000000000000000000 ) ) ;
#242 = SURFACE_STYLE_USAGE ( .BOTH. , #101 ) ;
#243 = PRESENTATION_LAYER_ASSIGNMENT (  '', '', ( #227 ) ) ;
#244 = SURFACE_STYLE_USAGE ( .BOTH. , #202 ) ;
ENDSEC;
END-ISO-10303-21;
