ISO-10303-21;
HEADER;
FILE_DESCRIPTION (( 'STEP AP214' ),
    '1' );
FILE_NAME ('504087.STEP',
    '2019-09-05T09:14:16',
    ( 'user' ),
    ( 'Î¢ÈíÖÐ¹ú' ),
    'SwSTEP 2.0',
    'SolidWorks 2016',
    '' );
FILE_SCHEMA (( 'AUTOMOTIVE_DESIGN' ));
ENDSEC;

DATA;
#1 = DIRECTION ( 'NONE',  ( 0.0000000000000000000, 0.0000000000000000000, 1.000000000000000000 ) ) ;
#2 = ORIENTED_EDGE ( 'NONE', *, *, #5, .F. ) ;
#3 = APPLICATION_PROTOCOL_DEFINITION ( 'draft international standard', 'automotive_design', 1998, #155 ) ;
#4 = ORIENTED_EDGE ( 'NONE', *, *, #57, .T. ) ;
#5 = EDGE_CURVE ( 'NONE', #164, #129, #180, .T. ) ;
#6 = CYLINDRICAL_SURFACE ( 'NONE', #98, 11.10000000000000000 ) ;
#7 = AXIS2_PLACEMENT_3D ( 'NONE', #176, #72, #198 ) ;
#8 = FACE_BOUND ( 'NONE', #128, .T. ) ;
#9 = ORIENTED_EDGE ( 'NONE', *, *, #172, .F. ) ;
#10 = DIRECTION ( 'NONE',  ( 0.0000000000000000000, 1.000000000000000000, 0.0000000000000000000 ) ) ;
#11 = FACE_OUTER_BOUND ( 'NONE', #234, .T. ) ;
#12 = VERTEX_POINT ( 'NONE', #241 ) ;
#13 = APPLICATION_PROTOCOL_DEFINITION ( 'draft international standard', 'automotive_design', 1998, #202 ) ;
#14 =( LENGTH_UNIT ( ) NAMED_UNIT ( * ) SI_UNIT ( .MILLI., .METRE. ) );
#15 = CARTESIAN_POINT ( 'NONE',  ( 1.555301434917138400E-015, 11.00000000000000000, 12.69999999999999900 ) ) ;
#16 =( NAMED_UNIT ( * ) SI_UNIT ( $, .STERADIAN. ) SOLID_ANGLE_UNIT ( ) );
#17 = DIRECTION ( 'NONE',  ( 0.0000000000000000000, 1.000000000000000000, 0.0000000000000000000 ) ) ;
#18 =( NAMED_UNIT ( * ) SI_UNIT ( $, .STERADIAN. ) SOLID_ANGLE_UNIT ( ) );
#19 = SURFACE_SIDE_STYLE ('',( #143 ) ) ;
#20 = STYLED_ITEM ( 'NONE', ( #112 ), #106 ) ;
#21 = DIRECTION ( 'NONE',  ( 0.0000000000000000000, 0.0000000000000000000, 1.000000000000000000 ) ) ;
#22 = AXIS2_PLACEMENT_3D ( 'NONE', #242, #115, #173 ) ;
#23 = CARTESIAN_POINT ( 'NONE',  ( 0.0000000000000000000, 11.00000000000000000, -12.69999999999999900 ) ) ;
#24 =( NAMED_UNIT ( * ) SI_UNIT ( $, .STERADIAN. ) SOLID_ANGLE_UNIT ( ) );
#25 = ADVANCED_FACE ( 'NONE', ( #191, #53 ), #47, .T. ) ;
#26 =( NAMED_UNIT ( * ) PLANE_ANGLE_UNIT ( ) SI_UNIT ( $, .RADIAN. ) );
#27 = DIRECTION ( 'NONE',  ( -0.0000000000000000000, -1.000000000000000000, -0.0000000000000000000 ) ) ;
#28 = COLOUR_RGB ( '',1.000000000000000000, 1.000000000000000000, 1.000000000000000000 ) ;
#29 = MECHANICAL_DESIGN_GEOMETRIC_PRESENTATION_REPRESENTATION (  '', ( #124 ), #85 ) ;
#30 = CLOSED_SHELL ( 'NONE', ( #71, #117, #25, #182, #205, #31 ) ) ;
#31 = ADVANCED_FACE ( 'NONE', ( #82 ), #240, .F. ) ;
#32 = DIRECTION ( 'NONE',  ( -0.0000000000000000000, -1.000000000000000000, -0.0000000000000000000 ) ) ;
#33 = AXIS2_PLACEMENT_3D ( 'NONE', #35, #27, #212 ) ;
#34 = CARTESIAN_POINT ( 'NONE',  ( 1.359357947053562200E-015, 0.0000000000000000000, 11.10000000000000000 ) ) ;
#35 = CARTESIAN_POINT ( 'NONE',  ( 0.0000000000000000000, 11.00000000000000000, 0.0000000000000000000 ) ) ;
#36 = CARTESIAN_POINT ( 'NONE',  ( 0.0000000000000000000, 0.0000000000000000000, 0.0000000000000000000 ) ) ;
#37 = PRODUCT_DEFINITION ( 'Î´Öª', '', #87, #214 ) ;
#38 = EDGE_LOOP ( 'NONE', ( #199, #135, #107, #223 ) ) ;
#39 = CARTESIAN_POINT ( 'NONE',  ( 0.0000000000000000000, 0.0000000000000000000, -12.69999999999999900 ) ) ;
#40 = AXIS2_PLACEMENT_3D ( 'NONE', #160, #116, #21 ) ;
#41 = UNCERTAINTY_MEASURE_WITH_UNIT (LENGTH_MEASURE( 1.000000000000000100E-005 ), #110, 'distance_accuracy_value', 'NONE');
#42 = AXIS2_PLACEMENT_3D ( 'NONE', #183, #75, #208 ) ;
#43 = SURFACE_STYLE_FILL_AREA ( #132 ) ;
#44 =( LENGTH_UNIT ( ) NAMED_UNIT ( * ) SI_UNIT ( .MILLI., .METRE. ) );
#45 = ORIENTED_EDGE ( 'NONE', *, *, #168, .T. ) ;
#46 = DIRECTION ( 'NONE',  ( 0.0000000000000000000, 0.0000000000000000000, 1.000000000000000000 ) ) ;
#47 = PLANE ( 'NONE',  #42 ) ;
#48 = LINE ( 'NONE', #23, #220 ) ;
#49 = PRESENTATION_STYLE_ASSIGNMENT (( #227 ) ) ;
#50 = SURFACE_SIDE_STYLE ('',( #43 ) ) ;
#51 = SURFACE_SIDE_STYLE ('',( #58 ) ) ;
#52 = AXIS2_PLACEMENT_3D ( 'NONE', #244, #17, #156 ) ;
#53 = FACE_BOUND ( 'NONE', #108, .T. ) ;
#54 = VECTOR ( 'NONE', #102, 1000.000000000000000 ) ;
#55 = UNCERTAINTY_MEASURE_WITH_UNIT (LENGTH_MEASURE( 1.000000000000000100E-005 ), #14, 'distance_accuracy_value', 'NONE');
#56 = CYLINDRICAL_SURFACE ( 'NONE', #33, 12.69999999999999900 ) ;
#57 = EDGE_CURVE ( 'NONE', #66, #12, #74, .T. ) ;
#58 = SURFACE_STYLE_FILL_AREA ( #206 ) ;
#59 = FACE_OUTER_BOUND ( 'NONE', #38, .T. ) ;
#60 =( NAMED_UNIT ( * ) PLANE_ANGLE_UNIT ( ) SI_UNIT ( $, .RADIAN. ) );
#61 = PRESENTATION_LAYER_ASSIGNMENT (  '', '', ( #144 ) ) ;
#62 = DIRECTION ( 'NONE',  ( -0.0000000000000000000, -1.000000000000000000, -0.0000000000000000000 ) ) ;
#63 = DIRECTION ( 'NONE',  ( 0.0000000000000000000, 1.000000000000000000, 0.0000000000000000000 ) ) ;
#64 = AXIS2_PLACEMENT_3D ( 'NONE', #138, #217, #139 ) ;
#65 = PRODUCT ( '504087', '504087', '', ( #215 ) ) ;
#66 = VERTEX_POINT ( 'NONE', #231 ) ;
#67 = CARTESIAN_POINT ( 'NONE',  ( 1.359357947053562200E-015, 11.00000000000000000, 11.10000000000000000 ) ) ;
#68 = VERTEX_POINT ( 'NONE', #67 ) ;
#69 = FILL_AREA_STYLE ('',( #186 ) ) ;
#70 = FILL_AREA_STYLE_COLOUR ( '', #210 ) ;
#71 = ADVANCED_FACE ( 'NONE', ( #133 ), #6, .F. ) ;
#72 = DIRECTION ( 'NONE',  ( -0.0000000000000000000, -1.000000000000000000, -0.0000000000000000000 ) ) ;
#73 = DIRECTION ( 'NONE',  ( 0.0000000000000000000, 0.0000000000000000000, -1.000000000000000000 ) ) ;
#74 = LINE ( 'NONE', #201, #54 ) ;
#75 = DIRECTION ( 'NONE',  ( 0.0000000000000000000, 1.000000000000000000, 0.0000000000000000000 ) ) ;
#76 = VECTOR ( 'NONE', #32, 1000.000000000000000 ) ;
#77 = FILL_AREA_STYLE ('',( #70 ) ) ;
#78 =( NAMED_UNIT ( * ) SI_UNIT ( $, .STERADIAN. ) SOLID_ANGLE_UNIT ( ) );
#79 =( LENGTH_UNIT ( ) NAMED_UNIT ( * ) SI_UNIT ( .MILLI., .METRE. ) );
#80 = STYLED_ITEM ( 'NONE', ( #49 ), #71 ) ;
#81 = ORIENTED_EDGE ( 'NONE', *, *, #243, .T. ) ;
#82 = FACE_OUTER_BOUND ( 'NONE', #179, .T. ) ;
#83 = SURFACE_STYLE_USAGE ( .BOTH. , #50 ) ;
#84 = LINE ( 'NONE', #15, #76 ) ;
#85 =( GEOMETRIC_REPRESENTATION_CONTEXT ( 3 ) GLOBAL_UNCERTAINTY_ASSIGNED_CONTEXT ( ( #151 ) ) GLOBAL_UNIT_ASSIGNED_CONTEXT ( ( #114, #60, #24 ) ) REPRESENTATION_CONTEXT ( 'NONE', 'WORKASPACE' ) );
#86 = SURFACE_STYLE_USAGE ( .BOTH. , #19 ) ;
#87 = PRODUCT_DEFINITION_FORMATION_WITH_SPECIFIED_SOURCE ( 'ÈÎºÎ', '', #65, .NOT_KNOWN. ) ;
#88 = AXIS2_PLACEMENT_3D ( 'NONE', #141, #230, #203 ) ;
#89 = ORIENTED_EDGE ( 'NONE', *, *, #165, .T. ) ;
#90 = ADVANCED_BREP_SHAPE_REPRESENTATION ( '504087', ( #106, #22 ), #189 ) ;
#91 = LINE ( 'NONE', #130, #169 ) ;
#92 = ORIENTED_EDGE ( 'NONE', *, *, #166, .F. ) ;
#93 = EDGE_LOOP ( 'NONE', ( #111, #2 ) ) ;
#94 = CARTESIAN_POINT ( 'NONE',  ( 0.0000000000000000000, 11.00000000000000000, 0.0000000000000000000 ) ) ;
#95 = CIRCLE ( 'NONE', #221, 12.69999999999999900 ) ;
#96 = ORIENTED_EDGE ( 'NONE', *, *, #163, .T. ) ;
#97 = DIRECTION ( 'NONE',  ( 0.0000000000000000000, 0.0000000000000000000, 1.000000000000000000 ) ) ;
#98 = AXIS2_PLACEMENT_3D ( 'NONE', #94, #62, #73 ) ;
#99 =( NAMED_UNIT ( * ) PLANE_ANGLE_UNIT ( ) SI_UNIT ( $, .RADIAN. ) );
#100 = CIRCLE ( 'NONE', #88, 11.10000000000000000 ) ;
#101 = AXIS2_PLACEMENT_3D ( 'NONE', #36, #236, #188 ) ;
#102 = DIRECTION ( 'NONE',  ( -0.0000000000000000000, -1.000000000000000000, -0.0000000000000000000 ) ) ;
#103 = CIRCLE ( 'NONE', #64, 11.10000000000000000 ) ;
#104 = DIRECTION ( 'NONE',  ( 0.0000000000000000000, 0.0000000000000000000, -1.000000000000000000 ) ) ;
#105 = PRODUCT_RELATED_PRODUCT_CATEGORY ( 'part', '', ( #65 ) ) ;
#106 = MANIFOLD_SOLID_BREP ( 'Í¹Ì¨-À­Éì1', #30 ) ;
#107 = ORIENTED_EDGE ( 'NONE', *, *, #5, .T. ) ;
#108 = EDGE_LOOP ( 'NONE', ( #9, #153 ) ) ;
#109 = PRESENTATION_STYLE_ASSIGNMENT (( #83 ) ) ;
#110 =( LENGTH_UNIT ( ) NAMED_UNIT ( * ) SI_UNIT ( .MILLI., .METRE. ) );
#111 = ORIENTED_EDGE ( 'NONE', *, *, #168, .F. ) ;
#112 = PRESENTATION_STYLE_ASSIGNMENT (( #232 ) ) ;
#113 = AXIS2_PLACEMENT_3D ( 'NONE', #222, #197, #104 ) ;
#114 =( LENGTH_UNIT ( ) NAMED_UNIT ( * ) SI_UNIT ( .MILLI., .METRE. ) );
#115 = DIRECTION ( 'NONE',  ( 0.0000000000000000000, 0.0000000000000000000, 1.000000000000000000 ) ) ;
#116 = DIRECTION ( 'NONE',  ( 0.0000000000000000000, 1.000000000000000000, 0.0000000000000000000 ) ) ;
#117 = ADVANCED_FACE ( 'NONE', ( #59 ), #56, .T. ) ;
#118 = CIRCLE ( 'NONE', #161, 12.69999999999999900 ) ;
#119 = COLOUR_RGB ( '',1.000000000000000000, 1.000000000000000000, 1.000000000000000000 ) ;
#120 = ORIENTED_EDGE ( 'NONE', *, *, #181, .T. ) ;
#121 = PRESENTATION_LAYER_ASSIGNMENT (  '', '', ( #80 ) ) ;
#122 = MECHANICAL_DESIGN_GEOMETRIC_PRESENTATION_REPRESENTATION (  '', ( #80 ), #177 ) ;
#123 = FACE_OUTER_BOUND ( 'NONE', #93, .T. ) ;
#124 = STYLED_ITEM ( 'NONE', ( #109 ), #90 ) ;
#125 = PRODUCT_DEFINITION_SHAPE ( 'NONE', 'NONE',  #37 ) ;
#126 = EDGE_LOOP ( 'NONE', ( #152, #120, #200, #207 ) ) ;
#127 = COLOUR_RGB ( '',1.000000000000000000, 1.000000000000000000, 1.000000000000000000 ) ;
#128 = EDGE_LOOP ( 'NONE', ( #81, #136 ) ) ;
#129 = VERTEX_POINT ( 'NONE', #39 ) ;
#130 = CARTESIAN_POINT ( 'NONE',  ( 1.359357947053562200E-015, 11.00000000000000000, 11.10000000000000000 ) ) ;
#131 = PRESENTATION_LAYER_ASSIGNMENT (  '', '', ( #20 ) ) ;
#132 = FILL_AREA_STYLE ('',( #225 ) ) ;
#133 = FACE_OUTER_BOUND ( 'NONE', #126, .T. ) ;
#134 = CYLINDRICAL_SURFACE ( 'NONE', #113, 12.69999999999999900 ) ;
#135 = ORIENTED_EDGE ( 'NONE', *, *, #218, .T. ) ;
#136 = ORIENTED_EDGE ( 'NONE', *, *, #166, .T. ) ;
#137 = DIRECTION ( 'NONE',  ( -0.0000000000000000000, -1.000000000000000000, -0.0000000000000000000 ) ) ;
#138 = CARTESIAN_POINT ( 'NONE',  ( 0.0000000000000000000, 11.00000000000000000, 0.0000000000000000000 ) ) ;
#139 = DIRECTION ( 'NONE',  ( 0.0000000000000000000, 0.0000000000000000000, 1.000000000000000000 ) ) ;
#140 = CARTESIAN_POINT ( 'NONE',  ( 1.555301434917138400E-015, 11.00000000000000000, 12.69999999999999900 ) ) ;
#141 = CARTESIAN_POINT ( 'NONE',  ( 0.0000000000000000000, 11.00000000000000000, 0.0000000000000000000 ) ) ;
#142 = ORIENTED_EDGE ( 'NONE', *, *, #148, .T. ) ;
#143 = SURFACE_STYLE_FILL_AREA ( #69 ) ;
#144 = STYLED_ITEM ( 'NONE', ( #216 ), #31 ) ;
#145 = DIRECTION ( 'NONE',  ( 0.0000000000000000000, -0.0000000000000000000, 1.000000000000000000 ) ) ;
#146 =( NAMED_UNIT ( * ) SI_UNIT ( $, .STERADIAN. ) SOLID_ANGLE_UNIT ( ) );
#147 = VERTEX_POINT ( 'NONE', #34 ) ;
#148 = EDGE_CURVE ( 'NONE', #195, #129, #48, .T. ) ;
#149 = CARTESIAN_POINT ( 'NONE',  ( 1.555301434917138400E-015, 0.0000000000000000000, 12.69999999999999900 ) ) ;
#150 = AXIS2_PLACEMENT_3D ( 'NONE', #226, #63, #46 ) ;
#151 = UNCERTAINTY_MEASURE_WITH_UNIT (LENGTH_MEASURE( 1.000000000000000100E-005 ), #114, 'distance_accuracy_value', 'NONE');
#152 = ORIENTED_EDGE ( 'NONE', *, *, #172, .T. ) ;
#153 = ORIENTED_EDGE ( 'NONE', *, *, #184, .F. ) ;
#154 = CARTESIAN_POINT ( 'NONE',  ( 0.0000000000000000000, 0.0000000000000000000, 0.0000000000000000000 ) ) ;
#155 = APPLICATION_CONTEXT ( 'automotive_design' ) ;
#156 = DIRECTION ( 'NONE',  ( 0.0000000000000000000, 0.0000000000000000000, 1.000000000000000000 ) ) ;
#157 = MECHANICAL_DESIGN_GEOMETRIC_PRESENTATION_REPRESENTATION (  '', ( #144 ), #224 ) ;
#158 = CARTESIAN_POINT ( 'NONE',  ( 0.0000000000000000000, 11.00000000000000000, 0.0000000000000000000 ) ) ;
#159 = SURFACE_SIDE_STYLE ('',( #235 ) ) ;
#160 = CARTESIAN_POINT ( 'NONE',  ( 0.0000000000000000000, 0.0000000000000000000, 0.0000000000000000000 ) ) ;
#161 = AXIS2_PLACEMENT_3D ( 'NONE', #158, #10, #97 ) ;
#162 = CIRCLE ( 'NONE', #150, 11.10000000000000000 ) ;
#163 = EDGE_CURVE ( 'NONE', #195, #187, #118, .T. ) ;
#164 = VERTEX_POINT ( 'NONE', #149 ) ;
#165 = EDGE_CURVE ( 'NONE', #187, #195, #95, .T. ) ;
#166 = EDGE_CURVE ( 'NONE', #147, #12, #162, .T. ) ;
#167 =( NAMED_UNIT ( * ) PLANE_ANGLE_UNIT ( ) SI_UNIT ( $, .RADIAN. ) );
#168 = EDGE_CURVE ( 'NONE', #129, #164, #170, .T. ) ;
#169 = VECTOR ( 'NONE', #137, 1000.000000000000000 ) ;
#170 = CIRCLE ( 'NONE', #101, 12.69999999999999900 ) ;
#171 = FILL_AREA_STYLE_COLOUR ( '', #28 ) ;
#172 = EDGE_CURVE ( 'NONE', #66, #68, #100, .T. ) ;
#173 = DIRECTION ( 'NONE',  ( 1.000000000000000000, 0.0000000000000000000, 0.0000000000000000000 ) ) ;
#174 = ORIENTED_EDGE ( 'NONE', *, *, #181, .F. ) ;
#175 =( GEOMETRIC_REPRESENTATION_CONTEXT ( 3 ) GLOBAL_UNCERTAINTY_ASSIGNED_CONTEXT ( ( #185 ) ) GLOBAL_UNIT_ASSIGNED_CONTEXT ( ( #44, #26, #16 ) ) REPRESENTATION_CONTEXT ( 'NONE', 'WORKASPACE' ) );
#176 = CARTESIAN_POINT ( 'NONE',  ( 0.0000000000000000000, 11.00000000000000000, 0.0000000000000000000 ) ) ;
#177 =( GEOMETRIC_REPRESENTATION_CONTEXT ( 3 ) GLOBAL_UNCERTAINTY_ASSIGNED_CONTEXT ( ( #55 ) ) GLOBAL_UNIT_ASSIGNED_CONTEXT ( ( #14, #167, #146 ) ) REPRESENTATION_CONTEXT ( 'NONE', 'WORKASPACE' ) );
#178 = DIRECTION ( 'NONE',  ( -0.0000000000000000000, -1.000000000000000000, -0.0000000000000000000 ) ) ;
#179 = EDGE_LOOP ( 'NONE', ( #174, #229, #4, #92 ) ) ;
#180 = CIRCLE ( 'NONE', #40, 12.69999999999999900 ) ;
#181 = EDGE_CURVE ( 'NONE', #68, #147, #91, .T. ) ;
#182 = ADVANCED_FACE ( 'NONE', ( #123, #8 ), #238, .F. ) ;
#183 = CARTESIAN_POINT ( 'NONE',  ( 0.0000000000000000000, 11.00000000000000000, 0.0000000000000000000 ) ) ;
#184 = EDGE_CURVE ( 'NONE', #68, #66, #103, .T. ) ;
#185 = UNCERTAINTY_MEASURE_WITH_UNIT (LENGTH_MEASURE( 1.000000000000000100E-005 ), #44, 'distance_accuracy_value', 'NONE');
#186 = FILL_AREA_STYLE_COLOUR ( '', #127 ) ;
#187 = VERTEX_POINT ( 'NONE', #140 ) ;
#188 = DIRECTION ( 'NONE',  ( 0.0000000000000000000, 0.0000000000000000000, 1.000000000000000000 ) ) ;
#189 =( GEOMETRIC_REPRESENTATION_CONTEXT ( 3 ) GLOBAL_UNCERTAINTY_ASSIGNED_CONTEXT ( ( #41 ) ) GLOBAL_UNIT_ASSIGNED_CONTEXT ( ( #110, #99, #18 ) ) REPRESENTATION_CONTEXT ( 'NONE', 'WORKASPACE' ) );
#190 = ORIENTED_EDGE ( 'NONE', *, *, #163, .F. ) ;
#191 = FACE_OUTER_BOUND ( 'NONE', #233, .T. ) ;
#192 =( NAMED_UNIT ( * ) PLANE_ANGLE_UNIT ( ) SI_UNIT ( $, .RADIAN. ) );
#193 = SHAPE_DEFINITION_REPRESENTATION ( #125, #90 ) ;
#194 = DIRECTION ( 'NONE',  ( 0.0000000000000000000, 1.000000000000000000, 0.0000000000000000000 ) ) ;
#195 = VERTEX_POINT ( 'NONE', #228 ) ;
#196 = MECHANICAL_DESIGN_GEOMETRIC_PRESENTATION_REPRESENTATION (  '', ( #20 ), #175 ) ;
#197 = DIRECTION ( 'NONE',  ( -0.0000000000000000000, -1.000000000000000000, -0.0000000000000000000 ) ) ;
#198 = DIRECTION ( 'NONE',  ( 0.0000000000000000000, 0.0000000000000000000, -1.000000000000000000 ) ) ;
#199 = ORIENTED_EDGE ( 'NONE', *, *, #165, .F. ) ;
#200 = ORIENTED_EDGE ( 'NONE', *, *, #243, .F. ) ;
#201 = CARTESIAN_POINT ( 'NONE',  ( 0.0000000000000000000, 11.00000000000000000, -11.10000000000000000 ) ) ;
#202 = APPLICATION_CONTEXT ( 'automotive_design' ) ;
#203 = DIRECTION ( 'NONE',  ( 0.0000000000000000000, 0.0000000000000000000, 1.000000000000000000 ) ) ;
#204 = CIRCLE ( 'NONE', #52, 11.10000000000000000 ) ;
#205 = ADVANCED_FACE ( 'NONE', ( #11 ), #134, .T. ) ;
#206 = FILL_AREA_STYLE ('',( #171 ) ) ;
#207 = ORIENTED_EDGE ( 'NONE', *, *, #57, .F. ) ;
#208 = DIRECTION ( 'NONE',  ( 0.0000000000000000000, -0.0000000000000000000, 1.000000000000000000 ) ) ;
#209 = ORIENTED_EDGE ( 'NONE', *, *, #218, .F. ) ;
#210 = COLOUR_RGB ( '',1.000000000000000000, 1.000000000000000000, 1.000000000000000000 ) ;
#211 = UNCERTAINTY_MEASURE_WITH_UNIT (LENGTH_MEASURE( 1.000000000000000100E-005 ), #79, 'distance_accuracy_value', 'NONE');
#212 = DIRECTION ( 'NONE',  ( 0.0000000000000000000, 0.0000000000000000000, -1.000000000000000000 ) ) ;
#213 = CARTESIAN_POINT ( 'NONE',  ( 0.0000000000000000000, 11.00000000000000000, 0.0000000000000000000 ) ) ;
#214 = PRODUCT_DEFINITION_CONTEXT ( 'detailed design', #202, 'design' ) ;
#215 = PRODUCT_CONTEXT ( 'NONE', #155, 'mechanical' ) ;
#216 = PRESENTATION_STYLE_ASSIGNMENT (( #86 ) ) ;
#217 = DIRECTION ( 'NONE',  ( 0.0000000000000000000, 1.000000000000000000, 0.0000000000000000000 ) ) ;
#218 = EDGE_CURVE ( 'NONE', #187, #164, #84, .T. ) ;
#219 = PRESENTATION_LAYER_ASSIGNMENT (  '', '', ( #124 ) ) ;
#220 = VECTOR ( 'NONE', #178, 1000.000000000000000 ) ;
#221 = AXIS2_PLACEMENT_3D ( 'NONE', #213, #237, #1 ) ;
#222 = CARTESIAN_POINT ( 'NONE',  ( 0.0000000000000000000, 11.00000000000000000, 0.0000000000000000000 ) ) ;
#223 = ORIENTED_EDGE ( 'NONE', *, *, #148, .F. ) ;
#224 =( GEOMETRIC_REPRESENTATION_CONTEXT ( 3 ) GLOBAL_UNCERTAINTY_ASSIGNED_CONTEXT ( ( #211 ) ) GLOBAL_UNIT_ASSIGNED_CONTEXT ( ( #79, #192, #78 ) ) REPRESENTATION_CONTEXT ( 'NONE', 'WORKASPACE' ) );
#225 = FILL_AREA_STYLE_COLOUR ( '', #119 ) ;
#226 = CARTESIAN_POINT ( 'NONE',  ( 0.0000000000000000000, 0.0000000000000000000, 0.0000000000000000000 ) ) ;
#227 = SURFACE_STYLE_USAGE ( .BOTH. , #51 ) ;
#228 = CARTESIAN_POINT ( 'NONE',  ( 0.0000000000000000000, 11.00000000000000000, -12.69999999999999900 ) ) ;
#229 = ORIENTED_EDGE ( 'NONE', *, *, #184, .T. ) ;
#230 = DIRECTION ( 'NONE',  ( 0.0000000000000000000, 1.000000000000000000, 0.0000000000000000000 ) ) ;
#231 = CARTESIAN_POINT ( 'NONE',  ( 0.0000000000000000000, 11.00000000000000000, -11.10000000000000000 ) ) ;
#232 = SURFACE_STYLE_USAGE ( .BOTH. , #159 ) ;
#233 = EDGE_LOOP ( 'NONE', ( #96, #89 ) ) ;
#234 = EDGE_LOOP ( 'NONE', ( #209, #190, #142, #45 ) ) ;
#235 = SURFACE_STYLE_FILL_AREA ( #77 ) ;
#236 = DIRECTION ( 'NONE',  ( 0.0000000000000000000, 1.000000000000000000, 0.0000000000000000000 ) ) ;
#237 = DIRECTION ( 'NONE',  ( 0.0000000000000000000, 1.000000000000000000, 0.0000000000000000000 ) ) ;
#238 = PLANE ( 'NONE',  #239 ) ;
#239 = AXIS2_PLACEMENT_3D ( 'NONE', #154, #194, #145 ) ;
#240 = CYLINDRICAL_SURFACE ( 'NONE', #7, 11.10000000000000000 ) ;
#241 = CARTESIAN_POINT ( 'NONE',  ( 0.0000000000000000000, 0.0000000000000000000, -11.10000000000000000 ) ) ;
#242 = CARTESIAN_POINT ( 'NONE',  ( 0.0000000000000000000, 0.0000000000000000000, 0.0000000000000000000 ) ) ;
#243 = EDGE_CURVE ( 'NONE', #12, #147, #204, .T. ) ;
#244 = CARTESIAN_POINT ( 'NONE',  ( 0.0000000000000000000, 0.0000000000000000000, 0.0000000000000000000 ) ) ;
ENDSEC;
END-ISO-10303-21;
