ISO-10303-21;
HEADER;
FILE_DESCRIPTION (( 'STEP AP214' ),
    '1' );
FILE_NAME ('511002.STEP',
    '2019-09-12T08:16:14',
    ( '' ),
    ( '' ),
    'SwSTEP 2.0',
    'SolidWorks 2016',
    '' );
FILE_SCHEMA (( 'AUTOMOTIVE_DESIGN' ));
ENDSEC;

DATA;
#1 = ORIENTED_EDGE ( 'NONE', *, *, #227, .T. ) ;
#2 = CIRCLE ( 'NONE', #179, 20.50000000000001100 ) ;
#3 = DIRECTION ( 'NONE',  ( -0.0000000000000000000, 1.000000000000000000, -0.0000000000000000000 ) ) ;
#4 = AXIS2_PLACEMENT_3D ( 'NONE', #158, #178, #219 ) ;
#5 = ORIENTED_EDGE ( 'NONE', *, *, #60, .T. ) ;
#6 = ADVANCED_FACE ( 'NONE', ( #157 ), #80, .T. ) ;
#7 = ORIENTED_EDGE ( 'NONE', *, *, #149, .T. ) ;
#8 = SURFACE_STYLE_USAGE ( .BOTH. , #105 ) ;
#9 = EDGE_LOOP ( 'NONE', ( #243, #47 ) ) ;
#10 = CARTESIAN_POINT ( 'NONE',  ( 3.110602869834278000E-015, 77.14414226561778800, -25.40000000000000900 ) ) ;
#11 = CARTESIAN_POINT ( 'NONE',  ( 0.0000000000000000000, 2.500000000000002200, 0.0000000000000000000 ) ) ;
#12 = MECHANICAL_DESIGN_GEOMETRIC_PRESENTATION_REPRESENTATION (  '', ( #73 ), #106 ) ;
#13 = FILL_AREA_STYLE_COLOUR ( '', #235 ) ;
#14 = LINE ( 'NONE', #209, #217 ) ;
#15 = CARTESIAN_POINT ( 'NONE',  ( 20.50000000000001100, 0.0000000000000000000, 0.0000000000000000000 ) ) ;
#16 = CLOSED_SHELL ( 'NONE', ( #86, #6, #83, #230, #64, #36 ) ) ;
#17 = DIRECTION ( 'NONE',  ( 0.0000000000000000000, 0.0000000000000000000, 1.000000000000000000 ) ) ;
#18 = DIRECTION ( 'NONE',  ( 1.000000000000000000, 0.0000000000000000000, 0.0000000000000000000 ) ) ;
#19 = EDGE_CURVE ( 'NONE', #110, #117, #176, .T. ) ;
#20 = SURFACE_SIDE_STYLE ('',( #66 ) ) ;
#21 = EDGE_LOOP ( 'NONE', ( #52, #70 ) ) ;
#22 = CARTESIAN_POINT ( 'NONE',  ( 0.0000000000000000000, 77.14414226561778800, 0.0000000000000000000 ) ) ;
#23 = AXIS2_PLACEMENT_3D ( 'NONE', #11, #94, #109 ) ;
#24 = DIRECTION ( 'NONE',  ( -0.0000000000000000000, 1.000000000000000000, -0.0000000000000000000 ) ) ;
#25 = CIRCLE ( 'NONE', #23, 25.40000000000000900 ) ;
#26 = ORIENTED_EDGE ( 'NONE', *, *, #216, .F. ) ;
#27 =( NAMED_UNIT ( * ) SI_UNIT ( $, .STERADIAN. ) SOLID_ANGLE_UNIT ( ) );
#28 = DIRECTION ( 'NONE',  ( 0.0000000000000000000, 0.0000000000000000000, 1.000000000000000000 ) ) ;
#29 = SURFACE_STYLE_FILL_AREA ( #31 ) ;
#30 = CARTESIAN_POINT ( 'NONE',  ( 0.0000000000000000000, 77.14414226561778800, 0.0000000000000000000 ) ) ;
#31 = FILL_AREA_STYLE ('',( #237 ) ) ;
#32 = DIRECTION ( 'NONE',  ( 0.0000000000000000000, 0.0000000000000000000, 1.000000000000000000 ) ) ;
#33 = EDGE_CURVE ( 'NONE', #59, #99, #136, .T. ) ;
#34 = CIRCLE ( 'NONE', #193, 25.40000000000000900 ) ;
#35 = AXIS2_PLACEMENT_3D ( 'NONE', #22, #24, #17 ) ;
#36 = ADVANCED_FACE ( 'NONE', ( #92 ), #240, .F. ) ;
#37 = VECTOR ( 'NONE', #204, 1000.000000000000000 ) ;
#38 = DIRECTION ( 'NONE',  ( 0.0000000000000000000, 0.0000000000000000000, 1.000000000000000000 ) ) ;
#39 =( NAMED_UNIT ( * ) PLANE_ANGLE_UNIT ( ) SI_UNIT ( $, .RADIAN. ) );
#40 = MECHANICAL_DESIGN_GEOMETRIC_PRESENTATION_REPRESENTATION (  '', ( #51 ), #74 ) ;
#41 = MECHANICAL_DESIGN_GEOMETRIC_PRESENTATION_REPRESENTATION (  '', ( #166 ), #68 ) ;
#42 = ORIENTED_EDGE ( 'NONE', *, *, #174, .T. ) ;
#43 = DIRECTION ( 'NONE',  ( 0.0000000000000000000, 0.0000000000000000000, 1.000000000000000000 ) ) ;
#44 = FILL_AREA_STYLE ('',( #13 ) ) ;
#45 = CIRCLE ( 'NONE', #46, 20.50000000000001100 ) ;
#46 = AXIS2_PLACEMENT_3D ( 'NONE', #190, #202, #32 ) ;
#47 = ORIENTED_EDGE ( 'NONE', *, *, #156, .T. ) ;
#48 = CARTESIAN_POINT ( 'NONE',  ( 2.510525938252075300E-015, 0.0000000000000000000, -20.50000000000001100 ) ) ;
#49 = UNCERTAINTY_MEASURE_WITH_UNIT (LENGTH_MEASURE( 1.000000000000000100E-005 ), #114, 'distance_accuracy_value', 'NONE');
#50 = PLANE ( 'NONE',  #139 ) ;
#51 = STYLED_ITEM ( 'NONE', ( #221 ), #122 ) ;
#52 = ORIENTED_EDGE ( 'NONE', *, *, #149, .F. ) ;
#53 = CARTESIAN_POINT ( 'NONE',  ( 0.0000000000000000000, 77.14414226561778800, 0.0000000000000000000 ) ) ;
#54 = LINE ( 'NONE', #10, #222 ) ;
#55 = CARTESIAN_POINT ( 'NONE',  ( 0.0000000000000000000, 2.500000000000002200, 25.40000000000000900 ) ) ;
#56 = CARTESIAN_POINT ( 'NONE',  ( 2.510525938252075300E-015, 2.500000000000002200, -20.50000000000001100 ) ) ;
#57 = EDGE_LOOP ( 'NONE', ( #215, #137, #121, #199 ) ) ;
#58 = DIRECTION ( 'NONE',  ( -0.0000000000000000000, 1.000000000000000000, -0.0000000000000000000 ) ) ;
#59 = VERTEX_POINT ( 'NONE', #48 ) ;
#60 = EDGE_CURVE ( 'NONE', #103, #132, #61, .T. ) ;
#61 = CIRCLE ( 'NONE', #127, 25.40000000000000900 ) ;
#62 = CARTESIAN_POINT ( 'NONE',  ( 20.50000000000001100, 2.500000000000000000, 0.0000000000000000000 ) ) ;
#63 = ORIENTED_EDGE ( 'NONE', *, *, #33, .T. ) ;
#64 = ADVANCED_FACE ( 'NONE', ( #85, #194 ), #50, .F. ) ;
#65 = FILL_AREA_STYLE ('',( #101 ) ) ;
#66 = SURFACE_STYLE_FILL_AREA ( #44 ) ;
#67 = ORIENTED_EDGE ( 'NONE', *, *, #188, .T. ) ;
#68 =( GEOMETRIC_REPRESENTATION_CONTEXT ( 3 ) GLOBAL_UNCERTAINTY_ASSIGNED_CONTEXT ( ( #79 ) ) GLOBAL_UNIT_ASSIGNED_CONTEXT ( ( #161, #39, #112 ) ) REPRESENTATION_CONTEXT ( 'NONE', 'WORKASPACE' ) );
#69 = DIRECTION ( 'NONE',  ( -0.0000000000000000000, 1.000000000000000000, -0.0000000000000000000 ) ) ;
#70 = ORIENTED_EDGE ( 'NONE', *, *, #60, .F. ) ;
#71 = CYLINDRICAL_SURFACE ( 'NONE', #167, 20.50000000000001100 ) ;
#72 = PLANE ( 'NONE',  #168 ) ;
#73 = STYLED_ITEM ( 'NONE', ( #228 ), #36 ) ;
#74 =( GEOMETRIC_REPRESENTATION_CONTEXT ( 3 ) GLOBAL_UNCERTAINTY_ASSIGNED_CONTEXT ( ( #195 ) ) GLOBAL_UNIT_ASSIGNED_CONTEXT ( ( #231, #115, #84 ) ) REPRESENTATION_CONTEXT ( 'NONE', 'WORKASPACE' ) );
#75 = DIRECTION ( 'NONE',  ( -0.0000000000000000000, 1.000000000000000000, -0.0000000000000000000 ) ) ;
#76 = ORIENTED_EDGE ( 'NONE', *, *, #118, .F. ) ;
#77 = SURFACE_SIDE_STYLE ('',( #29 ) ) ;
#78 = CARTESIAN_POINT ( 'NONE',  ( 0.0000000000000000000, 0.0000000000000000000, 0.0000000000000000000 ) ) ;
#79 = UNCERTAINTY_MEASURE_WITH_UNIT (LENGTH_MEASURE( 1.000000000000000100E-005 ), #161, 'distance_accuracy_value', 'NONE');
#80 = CYLINDRICAL_SURFACE ( 'NONE', #163, 25.40000000000000900 ) ;
#81 = FACE_OUTER_BOUND ( 'NONE', #21, .T. ) ;
#82 = SHAPE_DEFINITION_REPRESENTATION ( #226, #122 ) ;
#83 = ADVANCED_FACE ( 'NONE', ( #81, #189 ), #72, .F. ) ;
#84 =( NAMED_UNIT ( * ) SI_UNIT ( $, .STERADIAN. ) SOLID_ANGLE_UNIT ( ) );
#85 = FACE_BOUND ( 'NONE', #144, .T. ) ;
#86 = ADVANCED_FACE ( 'NONE', ( #225 ), #71, .F. ) ;
#87 = PRESENTATION_LAYER_ASSIGNMENT (  '', '', ( #73 ) ) ;
#88 =( GEOMETRIC_REPRESENTATION_CONTEXT ( 3 ) GLOBAL_UNCERTAINTY_ASSIGNED_CONTEXT ( ( #165 ) ) GLOBAL_UNIT_ASSIGNED_CONTEXT ( ( #175, #212, #214 ) ) REPRESENTATION_CONTEXT ( 'NONE', 'WORKASPACE' ) );
#89 = UNCERTAINTY_MEASURE_WITH_UNIT (LENGTH_MEASURE( 1.000000000000000100E-005 ), #138, 'distance_accuracy_value', 'NONE');
#90 = FILL_AREA_STYLE ('',( #201 ) ) ;
#91 =( NAMED_UNIT ( * ) PLANE_ANGLE_UNIT ( ) SI_UNIT ( $, .RADIAN. ) );
#92 = FACE_OUTER_BOUND ( 'NONE', #57, .T. ) ;
#93 = CARTESIAN_POINT ( 'NONE',  ( 0.0000000000000000000, 0.0000000000000000000, 25.40000000000000900 ) ) ;
#94 = DIRECTION ( 'NONE',  ( -0.0000000000000000000, 1.000000000000000000, -0.0000000000000000000 ) ) ;
#95 = EDGE_CURVE ( 'NONE', #113, #99, #2, .T. ) ;
#96 = ORIENTED_EDGE ( 'NONE', *, *, #156, .F. ) ;
#97 = PRESENTATION_LAYER_ASSIGNMENT (  '', '', ( #140 ) ) ;
#98 =( NAMED_UNIT ( * ) PLANE_ANGLE_UNIT ( ) SI_UNIT ( $, .RADIAN. ) );
#99 = VERTEX_POINT ( 'NONE', #56 ) ;
#100 = DIRECTION ( 'NONE',  ( -0.0000000000000000000, 1.000000000000000000, -0.0000000000000000000 ) ) ;
#101 = FILL_AREA_STYLE_COLOUR ( '', #169 ) ;
#102 = PRODUCT_DEFINITION_FORMATION_WITH_SPECIFIED_SOURCE ( 'ÈÎºÎ', '', #233, .NOT_KNOWN. ) ;
#103 = VERTEX_POINT ( 'NONE', #107 ) ;
#104 = AXIS2_PLACEMENT_3D ( 'NONE', #134, #131, #18 ) ;
#105 = SURFACE_SIDE_STYLE ('',( #123 ) ) ;
#106 =( GEOMETRIC_REPRESENTATION_CONTEXT ( 3 ) GLOBAL_UNCERTAINTY_ASSIGNED_CONTEXT ( ( #89 ) ) GLOBAL_UNIT_ASSIGNED_CONTEXT ( ( #138, #91, #27 ) ) REPRESENTATION_CONTEXT ( 'NONE', 'WORKASPACE' ) );
#107 = CARTESIAN_POINT ( 'NONE',  ( 3.110602869834278000E-015, 0.0000000000000000000, -25.40000000000000900 ) ) ;
#108 = DIRECTION ( 'NONE',  ( -0.0000000000000000000, 1.000000000000000000, 0.0000000000000000000 ) ) ;
#109 = DIRECTION ( 'NONE',  ( 0.0000000000000000000, 0.0000000000000000000, 1.000000000000000000 ) ) ;
#110 = VERTEX_POINT ( 'NONE', #55 ) ;
#111 = DIRECTION ( 'NONE',  ( -0.0000000000000000000, 1.000000000000000000, -0.0000000000000000000 ) ) ;
#112 =( NAMED_UNIT ( * ) SI_UNIT ( $, .STERADIAN. ) SOLID_ANGLE_UNIT ( ) );
#113 = VERTEX_POINT ( 'NONE', #185 ) ;
#114 =( LENGTH_UNIT ( ) NAMED_UNIT ( * ) SI_UNIT ( .MILLI., .METRE. ) );
#115 =( NAMED_UNIT ( * ) PLANE_ANGLE_UNIT ( ) SI_UNIT ( $, .RADIAN. ) );
#116 = CARTESIAN_POINT ( 'NONE',  ( 0.0000000000000000000, 2.500000000000002200, 0.0000000000000000000 ) ) ;
#117 = VERTEX_POINT ( 'NONE', #170 ) ;
#118 = EDGE_CURVE ( 'NONE', #103, #117, #54, .T. ) ;
#119 = VERTEX_POINT ( 'NONE', #160 ) ;
#120 = SURFACE_STYLE_FILL_AREA ( #65 ) ;
#121 = ORIENTED_EDGE ( 'NONE', *, *, #210, .T. ) ;
#122 = ADVANCED_BREP_SHAPE_REPRESENTATION ( '511002', ( #224, #104 ), #88 ) ;
#123 = SURFACE_STYLE_FILL_AREA ( #90 ) ;
#124 = LINE ( 'NONE', #223, #37 ) ;
#125 = DIRECTION ( 'NONE',  ( 0.0000000000000000000, 0.0000000000000000000, 1.000000000000000000 ) ) ;
#126 = ORIENTED_EDGE ( 'NONE', *, *, #118, .T. ) ;
#127 = AXIS2_PLACEMENT_3D ( 'NONE', #162, #3, #129 ) ;
#128 = DIRECTION ( 'NONE',  ( -0.0000000000000000000, 1.000000000000000000, -0.0000000000000000000 ) ) ;
#129 = DIRECTION ( 'NONE',  ( 0.0000000000000000000, 0.0000000000000000000, 1.000000000000000000 ) ) ;
#130 = SURFACE_SIDE_STYLE ('',( #120 ) ) ;
#131 = DIRECTION ( 'NONE',  ( 0.0000000000000000000, 0.0000000000000000000, 1.000000000000000000 ) ) ;
#132 = VERTEX_POINT ( 'NONE', #93 ) ;
#133 = CARTESIAN_POINT ( 'NONE',  ( 0.0000000000000000000, 0.0000000000000000000, 0.0000000000000000000 ) ) ;
#134 = CARTESIAN_POINT ( 'NONE',  ( 0.0000000000000000000, 0.0000000000000000000, 0.0000000000000000000 ) ) ;
#135 = PRODUCT_RELATED_PRODUCT_CATEGORY ( 'part', '', ( #233 ) ) ;
#136 = LINE ( 'NONE', #181, #238 ) ;
#137 = ORIENTED_EDGE ( 'NONE', *, *, #227, .F. ) ;
#138 =( LENGTH_UNIT ( ) NAMED_UNIT ( * ) SI_UNIT ( .MILLI., .METRE. ) );
#139 = AXIS2_PLACEMENT_3D ( 'NONE', #62, #242, #183 ) ;
#140 = STYLED_ITEM ( 'NONE', ( #182 ), #224 ) ;
#141 = DIRECTION ( 'NONE',  ( -0.0000000000000000000, 1.000000000000000000, -0.0000000000000000000 ) ) ;
#142 = AXIS2_PLACEMENT_3D ( 'NONE', #239, #180, #28 ) ;
#143 = CARTESIAN_POINT ( 'NONE',  ( 0.0000000000000000000, 2.500000000000002200, 0.0000000000000000000 ) ) ;
#144 = EDGE_LOOP ( 'NONE', ( #196, #26 ) ) ;
#145 = PRODUCT_DEFINITION_CONTEXT ( 'detailed design', #213, 'design' ) ;
#146 = AXIS2_PLACEMENT_3D ( 'NONE', #116, #172, #43 ) ;
#147 = SURFACE_STYLE_USAGE ( .BOTH. , #77 ) ;
#148 = EDGE_LOOP ( 'NONE', ( #205, #63, #154, #208 ) ) ;
#149 = EDGE_CURVE ( 'NONE', #132, #103, #34, .T. ) ;
#150 = APPLICATION_PROTOCOL_DEFINITION ( 'draft international standard', 'automotive_design', 1998, #213 ) ;
#151 = SURFACE_STYLE_USAGE ( .BOTH. , #130 ) ;
#152 = PRODUCT_CONTEXT ( 'NONE', #232, 'mechanical' ) ;
#153 =( GEOMETRIC_REPRESENTATION_CONTEXT ( 3 ) GLOBAL_UNCERTAINTY_ASSIGNED_CONTEXT ( ( #49 ) ) GLOBAL_UNIT_ASSIGNED_CONTEXT ( ( #114, #98, #192 ) ) REPRESENTATION_CONTEXT ( 'NONE', 'WORKASPACE' ) );
#154 = ORIENTED_EDGE ( 'NONE', *, *, #216, .T. ) ;
#155 = DIRECTION ( 'NONE',  ( 0.0000000000000000000, 0.0000000000000000000, 1.000000000000000000 ) ) ;
#156 = EDGE_CURVE ( 'NONE', #117, #110, #25, .T. ) ;
#157 = FACE_OUTER_BOUND ( 'NONE', #186, .T. ) ;
#158 = CARTESIAN_POINT ( 'NONE',  ( 0.0000000000000000000, 2.500000000000002200, 0.0000000000000000000 ) ) ;
#159 = PRODUCT_DEFINITION ( 'Î´Öª', '', #102, #145 ) ;
#160 = CARTESIAN_POINT ( 'NONE',  ( 0.0000000000000000000, 0.0000000000000000000, 20.50000000000001100 ) ) ;
#161 =( LENGTH_UNIT ( ) NAMED_UNIT ( * ) SI_UNIT ( .MILLI., .METRE. ) );
#162 = CARTESIAN_POINT ( 'NONE',  ( 0.0000000000000000000, 0.0000000000000000000, 0.0000000000000000000 ) ) ;
#163 = AXIS2_PLACEMENT_3D ( 'NONE', #53, #69, #155 ) ;
#164 = EDGE_LOOP ( 'NONE', ( #1, #67 ) ) ;
#165 = UNCERTAINTY_MEASURE_WITH_UNIT (LENGTH_MEASURE( 1.000000000000000100E-005 ), #175, 'distance_accuracy_value', 'NONE');
#166 = STYLED_ITEM ( 'NONE', ( #177 ), #86 ) ;
#167 = AXIS2_PLACEMENT_3D ( 'NONE', #30, #128, #241 ) ;
#168 = AXIS2_PLACEMENT_3D ( 'NONE', #15, #108, #125 ) ;
#169 = COLOUR_RGB ( '',1.000000000000000000, 1.000000000000000000, 1.000000000000000000 ) ;
#170 = CARTESIAN_POINT ( 'NONE',  ( 3.110602869834278000E-015, 2.500000000000002200, -25.40000000000000900 ) ) ;
#171 = DIRECTION ( 'NONE',  ( 0.0000000000000000000, 0.0000000000000000000, 1.000000000000000000 ) ) ;
#172 = DIRECTION ( 'NONE',  ( -0.0000000000000000000, 1.000000000000000000, -0.0000000000000000000 ) ) ;
#173 = ORIENTED_EDGE ( 'NONE', *, *, #19, .F. ) ;
#174 = EDGE_CURVE ( 'NONE', #132, #110, #14, .T. ) ;
#175 =( LENGTH_UNIT ( ) NAMED_UNIT ( * ) SI_UNIT ( .MILLI., .METRE. ) );
#176 = CIRCLE ( 'NONE', #4, 25.40000000000000900 ) ;
#177 = PRESENTATION_STYLE_ASSIGNMENT (( #147 ) ) ;
#178 = DIRECTION ( 'NONE',  ( -0.0000000000000000000, 1.000000000000000000, -0.0000000000000000000 ) ) ;
#179 = AXIS2_PLACEMENT_3D ( 'NONE', #143, #111, #203 ) ;
#180 = DIRECTION ( 'NONE',  ( -0.0000000000000000000, 1.000000000000000000, -0.0000000000000000000 ) ) ;
#181 = CARTESIAN_POINT ( 'NONE',  ( 2.510525938252075300E-015, 77.14414226561778800, -20.50000000000001100 ) ) ;
#182 = PRESENTATION_STYLE_ASSIGNMENT (( #191 ) ) ;
#183 = DIRECTION ( 'NONE',  ( 0.0000000000000000000, -0.0000000000000000000, -1.000000000000000000 ) ) ;
#184 = PRESENTATION_LAYER_ASSIGNMENT (  '', '', ( #166 ) ) ;
#185 = CARTESIAN_POINT ( 'NONE',  ( 0.0000000000000000000, 2.500000000000002200, 20.50000000000001100 ) ) ;
#186 = EDGE_LOOP ( 'NONE', ( #7, #126, #173, #211 ) ) ;
#187 = COLOUR_RGB ( '',1.000000000000000000, 1.000000000000000000, 1.000000000000000000 ) ;
#188 = EDGE_CURVE ( 'NONE', #59, #119, #45, .T. ) ;
#189 = FACE_BOUND ( 'NONE', #164, .T. ) ;
#190 = CARTESIAN_POINT ( 'NONE',  ( 0.0000000000000000000, 0.0000000000000000000, 0.0000000000000000000 ) ) ;
#191 = SURFACE_STYLE_USAGE ( .BOTH. , #20 ) ;
#192 =( NAMED_UNIT ( * ) SI_UNIT ( $, .STERADIAN. ) SOLID_ANGLE_UNIT ( ) );
#193 = AXIS2_PLACEMENT_3D ( 'NONE', #78, #58, #38 ) ;
#194 = FACE_OUTER_BOUND ( 'NONE', #9, .T. ) ;
#195 = UNCERTAINTY_MEASURE_WITH_UNIT (LENGTH_MEASURE( 1.000000000000000100E-005 ), #231, 'distance_accuracy_value', 'NONE');
#196 = ORIENTED_EDGE ( 'NONE', *, *, #95, .F. ) ;
#197 = CIRCLE ( 'NONE', #146, 20.50000000000001100 ) ;
#198 = DIRECTION ( 'NONE',  ( -0.0000000000000000000, 1.000000000000000000, -0.0000000000000000000 ) ) ;
#199 = ORIENTED_EDGE ( 'NONE', *, *, #95, .T. ) ;
#200 = PRESENTATION_LAYER_ASSIGNMENT (  '', '', ( #51 ) ) ;
#201 = FILL_AREA_STYLE_COLOUR ( '', #234 ) ;
#202 = DIRECTION ( 'NONE',  ( -0.0000000000000000000, 1.000000000000000000, -0.0000000000000000000 ) ) ;
#203 = DIRECTION ( 'NONE',  ( 0.0000000000000000000, 0.0000000000000000000, 1.000000000000000000 ) ) ;
#204 = DIRECTION ( 'NONE',  ( -0.0000000000000000000, 1.000000000000000000, -0.0000000000000000000 ) ) ;
#205 = ORIENTED_EDGE ( 'NONE', *, *, #188, .F. ) ;
#206 = CYLINDRICAL_SURFACE ( 'NONE', #35, 25.40000000000000900 ) ;
#207 = AXIS2_PLACEMENT_3D ( 'NONE', #133, #100, #171 ) ;
#208 = ORIENTED_EDGE ( 'NONE', *, *, #210, .F. ) ;
#209 = CARTESIAN_POINT ( 'NONE',  ( 0.0000000000000000000, 77.14414226561778800, 25.40000000000000900 ) ) ;
#210 = EDGE_CURVE ( 'NONE', #119, #113, #124, .T. ) ;
#211 = ORIENTED_EDGE ( 'NONE', *, *, #174, .F. ) ;
#212 =( NAMED_UNIT ( * ) PLANE_ANGLE_UNIT ( ) SI_UNIT ( $, .RADIAN. ) );
#213 = APPLICATION_CONTEXT ( 'automotive_design' ) ;
#214 =( NAMED_UNIT ( * ) SI_UNIT ( $, .STERADIAN. ) SOLID_ANGLE_UNIT ( ) );
#215 = ORIENTED_EDGE ( 'NONE', *, *, #33, .F. ) ;
#216 = EDGE_CURVE ( 'NONE', #99, #113, #197, .T. ) ;
#217 = VECTOR ( 'NONE', #141, 1000.000000000000000 ) ;
#218 = MECHANICAL_DESIGN_GEOMETRIC_PRESENTATION_REPRESENTATION (  '', ( #140 ), #153 ) ;
#219 = DIRECTION ( 'NONE',  ( 0.0000000000000000000, 0.0000000000000000000, 1.000000000000000000 ) ) ;
#220 = FACE_OUTER_BOUND ( 'NONE', #236, .T. ) ;
#221 = PRESENTATION_STYLE_ASSIGNMENT (( #151 ) ) ;
#222 = VECTOR ( 'NONE', #75, 1000.000000000000000 ) ;
#223 = CARTESIAN_POINT ( 'NONE',  ( 0.0000000000000000000, 77.14414226561778800, 20.50000000000001100 ) ) ;
#224 = MANIFOLD_SOLID_BREP ( 'Ðý×ª1', #16 ) ;
#225 = FACE_OUTER_BOUND ( 'NONE', #148, .T. ) ;
#226 = PRODUCT_DEFINITION_SHAPE ( 'NONE', 'NONE',  #159 ) ;
#227 = EDGE_CURVE ( 'NONE', #119, #59, #244, .T. ) ;
#228 = PRESENTATION_STYLE_ASSIGNMENT (( #8 ) ) ;
#229 = APPLICATION_PROTOCOL_DEFINITION ( 'draft international standard', 'automotive_design', 1998, #232 ) ;
#230 = ADVANCED_FACE ( 'NONE', ( #220 ), #206, .T. ) ;
#231 =( LENGTH_UNIT ( ) NAMED_UNIT ( * ) SI_UNIT ( .MILLI., .METRE. ) );
#232 = APPLICATION_CONTEXT ( 'automotive_design' ) ;
#233 = PRODUCT ( '511002', '511002', '', ( #152 ) ) ;
#234 = COLOUR_RGB ( '',1.000000000000000000, 1.000000000000000000, 1.000000000000000000 ) ;
#235 = COLOUR_RGB ( '',1.000000000000000000, 1.000000000000000000, 1.000000000000000000 ) ;
#236 = EDGE_LOOP ( 'NONE', ( #76, #5, #42, #96 ) ) ;
#237 = FILL_AREA_STYLE_COLOUR ( '', #187 ) ;
#238 = VECTOR ( 'NONE', #198, 1000.000000000000000 ) ;
#239 = CARTESIAN_POINT ( 'NONE',  ( 0.0000000000000000000, 77.14414226561778800, 0.0000000000000000000 ) ) ;
#240 = CYLINDRICAL_SURFACE ( 'NONE', #142, 20.50000000000001100 ) ;
#241 = DIRECTION ( 'NONE',  ( 0.0000000000000000000, 0.0000000000000000000, 1.000000000000000000 ) ) ;
#242 = DIRECTION ( 'NONE',  ( 0.0000000000000000000, -1.000000000000000000, 0.0000000000000000000 ) ) ;
#243 = ORIENTED_EDGE ( 'NONE', *, *, #19, .T. ) ;
#244 = CIRCLE ( 'NONE', #207, 20.50000000000001100 ) ;
ENDSEC;
END-ISO-10303-21;
