ISO-10303-21;
HEADER;
FILE_DESCRIPTION (( 'STEP AP214' ),
    '1' );
FILE_NAME ('511005.STEP',
    '2019-09-12T08:34:10',
    ( '' ),
    ( '' ),
    'SwSTEP 2.0',
    'SolidWorks 2016',
    '' );
FILE_SCHEMA (( 'AUTOMOTIVE_DESIGN' ));
ENDSEC;

DATA;
#1 = EDGE_CURVE ( 'NONE', #157, #88, #216, .T. ) ;
#2 = CIRCLE ( 'NONE', #65, 10.00000000000000900 ) ;
#3 = COLOUR_RGB ( '',1.000000000000000000, 1.000000000000000000, 1.000000000000000000 ) ;
#4 = ORIENTED_EDGE ( 'NONE', *, *, #123, .T. ) ;
#5 = VECTOR ( 'NONE', #205, 1000.000000000000000 ) ;
#6 = CARTESIAN_POINT ( 'NONE',  ( 0.0000000000000000000, 2.500000000000002200, 0.0000000000000000000 ) ) ;
#7 = PLANE ( 'NONE',  #75 ) ;
#8 = UNCERTAINTY_MEASURE_WITH_UNIT (LENGTH_MEASURE( 1.000000000000000100E-005 ), #102, 'distance_accuracy_value', 'NONE');
#9 = CARTESIAN_POINT ( 'NONE',  ( 1.555301434917139800E-015, 77.14414226561778800, -12.70000000000001000 ) ) ;
#10 = PRODUCT_DEFINITION_CONTEXT ( 'detailed design', #87, 'design' ) ;
#11 = CARTESIAN_POINT ( 'NONE',  ( 0.0000000000000000000, 0.0000000000000000000, 0.0000000000000000000 ) ) ;
#12 = MECHANICAL_DESIGN_GEOMETRIC_PRESENTATION_REPRESENTATION (  '', ( #158 ), #58 ) ;
#13 = CARTESIAN_POINT ( 'NONE',  ( 1.555301434917139800E-015, 2.500000000000002200, -12.70000000000001000 ) ) ;
#14 = ORIENTED_EDGE ( 'NONE', *, *, #166, .F. ) ;
#15 = FILL_AREA_STYLE ('',( #192 ) ) ;
#16 = CARTESIAN_POINT ( 'NONE',  ( 1.224646799147354400E-015, 0.0000000000000000000, -10.00000000000000900 ) ) ;
#17 = EDGE_CURVE ( 'NONE', #184, #195, #240, .T. ) ;
#18 = PRODUCT_CONTEXT ( 'NONE', #100, 'mechanical' ) ;
#19 = ORIENTED_EDGE ( 'NONE', *, *, #22, .F. ) ;
#20 = ORIENTED_EDGE ( 'NONE', *, *, #96, .F. ) ;
#21 = STYLED_ITEM ( 'NONE', ( #132 ), #67 ) ;
#22 = EDGE_CURVE ( 'NONE', #226, #195, #163, .T. ) ;
#23 = LINE ( 'NONE', #131, #5 ) ;
#24 = CARTESIAN_POINT ( 'NONE',  ( 10.00000000000000900, 2.500000000000000000, 0.0000000000000000000 ) ) ;
#25 = DIRECTION ( 'NONE',  ( -0.0000000000000000000, 1.000000000000000000, -0.0000000000000000000 ) ) ;
#26 = AXIS2_PLACEMENT_3D ( 'NONE', #207, #114, #173 ) ;
#27 =( NAMED_UNIT ( * ) SI_UNIT ( $, .STERADIAN. ) SOLID_ANGLE_UNIT ( ) );
#28 = STYLED_ITEM ( 'NONE', ( #186 ), #74 ) ;
#29 = SURFACE_STYLE_USAGE ( .BOTH. , #105 ) ;
#30 = DIRECTION ( 'NONE',  ( 0.0000000000000000000, 0.0000000000000000000, 1.000000000000000000 ) ) ;
#31 =( LENGTH_UNIT ( ) NAMED_UNIT ( * ) SI_UNIT ( .MILLI., .METRE. ) );
#32 = CARTESIAN_POINT ( 'NONE',  ( 0.0000000000000000000, 2.500000000000002200, 12.70000000000001000 ) ) ;
#33 = COLOUR_RGB ( '',1.000000000000000000, 1.000000000000000000, 1.000000000000000000 ) ;
#34 =( GEOMETRIC_REPRESENTATION_CONTEXT ( 3 ) GLOBAL_UNCERTAINTY_ASSIGNED_CONTEXT ( ( #222 ) ) GLOBAL_UNIT_ASSIGNED_CONTEXT ( ( #31, #54, #106 ) ) REPRESENTATION_CONTEXT ( 'NONE', 'WORKASPACE' ) );
#35 = ORIENTED_EDGE ( 'NONE', *, *, #129, .T. ) ;
#36 = EDGE_CURVE ( 'NONE', #157, #196, #23, .T. ) ;
#37 = CYLINDRICAL_SURFACE ( 'NONE', #26, 12.70000000000001000 ) ;
#38 = AXIS2_PLACEMENT_3D ( 'NONE', #232, #49, #81 ) ;
#39 = ORIENTED_EDGE ( 'NONE', *, *, #22, .T. ) ;
#40 = AXIS2_PLACEMENT_3D ( 'NONE', #201, #225, #98 ) ;
#41 = CLOSED_SHELL ( 'NONE', ( #67, #139, #109, #147, #218, #211 ) ) ;
#42 = COLOUR_RGB ( '',1.000000000000000000, 1.000000000000000000, 1.000000000000000000 ) ;
#43 = DIRECTION ( 'NONE',  ( 0.0000000000000000000, -1.000000000000000000, 0.0000000000000000000 ) ) ;
#44 = CIRCLE ( 'NONE', #120, 12.70000000000001000 ) ;
#45 = FACE_OUTER_BOUND ( 'NONE', #57, .T. ) ;
#46 = DIRECTION ( 'NONE',  ( -0.0000000000000000000, 1.000000000000000000, -0.0000000000000000000 ) ) ;
#47 = CYLINDRICAL_SURFACE ( 'NONE', #219, 12.70000000000001000 ) ;
#48 =( NAMED_UNIT ( * ) SI_UNIT ( $, .STERADIAN. ) SOLID_ANGLE_UNIT ( ) );
#49 = DIRECTION ( 'NONE',  ( -0.0000000000000000000, 1.000000000000000000, -0.0000000000000000000 ) ) ;
#50 = ORIENTED_EDGE ( 'NONE', *, *, #94, .T. ) ;
#51 = PRODUCT_DEFINITION ( 'Î´Öª', '', #141, #10 ) ;
#52 = ORIENTED_EDGE ( 'NONE', *, *, #55, .F. ) ;
#53 = SURFACE_SIDE_STYLE ('',( #91 ) ) ;
#54 =( NAMED_UNIT ( * ) PLANE_ANGLE_UNIT ( ) SI_UNIT ( $, .RADIAN. ) );
#55 = EDGE_CURVE ( 'NONE', #196, #237, #181, .T. ) ;
#56 =( GEOMETRIC_REPRESENTATION_CONTEXT ( 3 ) GLOBAL_UNCERTAINTY_ASSIGNED_CONTEXT ( ( #170 ) ) GLOBAL_UNIT_ASSIGNED_CONTEXT ( ( #193, #116, #138 ) ) REPRESENTATION_CONTEXT ( 'NONE', 'WORKASPACE' ) );
#57 = EDGE_LOOP ( 'NONE', ( #149, #189, #52, #77 ) ) ;
#58 =( GEOMETRIC_REPRESENTATION_CONTEXT ( 3 ) GLOBAL_UNCERTAINTY_ASSIGNED_CONTEXT ( ( #229 ) ) GLOBAL_UNIT_ASSIGNED_CONTEXT ( ( #86, #235, #159 ) ) REPRESENTATION_CONTEXT ( 'NONE', 'WORKASPACE' ) );
#59 = PRESENTATION_LAYER_ASSIGNMENT (  '', '', ( #21 ) ) ;
#60 = ORIENTED_EDGE ( 'NONE', *, *, #166, .T. ) ;
#61 = DIRECTION ( 'NONE',  ( -0.0000000000000000000, 1.000000000000000000, -0.0000000000000000000 ) ) ;
#62 = CYLINDRICAL_SURFACE ( 'NONE', #198, 10.00000000000000900 ) ;
#63 = AXIS2_PLACEMENT_3D ( 'NONE', #83, #25, #177 ) ;
#64 =( LENGTH_UNIT ( ) NAMED_UNIT ( * ) SI_UNIT ( .MILLI., .METRE. ) );
#65 = AXIS2_PLACEMENT_3D ( 'NONE', #11, #197, #30 ) ;
#66 = FILL_AREA_STYLE_COLOUR ( '', #185 ) ;
#67 = ADVANCED_FACE ( 'NONE', ( #190 ), #187, .F. ) ;
#68 = CIRCLE ( 'NONE', #146, 10.00000000000000900 ) ;
#69 = EDGE_LOOP ( 'NONE', ( #117, #150, #244, #220 ) ) ;
#70 = CARTESIAN_POINT ( 'NONE',  ( 0.0000000000000000000, 2.500000000000002200, 0.0000000000000000000 ) ) ;
#71 = FILL_AREA_STYLE_COLOUR ( '', #42 ) ;
#72 = DIRECTION ( 'NONE',  ( -0.0000000000000000000, 1.000000000000000000, -0.0000000000000000000 ) ) ;
#73 = PRESENTATION_LAYER_ASSIGNMENT (  '', '', ( #223 ) ) ;
#74 = ADVANCED_BREP_SHAPE_REPRESENTATION ( '511005', ( #202, #164 ), #188 ) ;
#75 = AXIS2_PLACEMENT_3D ( 'NONE', #84, #140, #156 ) ;
#76 = UNCERTAINTY_MEASURE_WITH_UNIT (LENGTH_MEASURE( 1.000000000000000100E-005 ), #64, 'distance_accuracy_value', 'NONE');
#77 = ORIENTED_EDGE ( 'NONE', *, *, #36, .F. ) ;
#78 = DIRECTION ( 'NONE',  ( -0.0000000000000000000, 1.000000000000000000, -0.0000000000000000000 ) ) ;
#79 = CARTESIAN_POINT ( 'NONE',  ( 0.0000000000000000000, 2.500000000000002200, 0.0000000000000000000 ) ) ;
#80 = FACE_BOUND ( 'NONE', #169, .T. ) ;
#81 = DIRECTION ( 'NONE',  ( 0.0000000000000000000, 0.0000000000000000000, 1.000000000000000000 ) ) ;
#82 = CARTESIAN_POINT ( 'NONE',  ( 0.0000000000000000000, 0.0000000000000000000, 10.00000000000000900 ) ) ;
#83 = CARTESIAN_POINT ( 'NONE',  ( 0.0000000000000000000, 0.0000000000000000000, 0.0000000000000000000 ) ) ;
#84 = CARTESIAN_POINT ( 'NONE',  ( 10.00000000000000900, 0.0000000000000000000, 0.0000000000000000000 ) ) ;
#85 = ORIENTED_EDGE ( 'NONE', *, *, #17, .F. ) ;
#86 =( LENGTH_UNIT ( ) NAMED_UNIT ( * ) SI_UNIT ( .MILLI., .METRE. ) );
#87 = APPLICATION_CONTEXT ( 'automotive_design' ) ;
#88 = VERTEX_POINT ( 'NONE', #115 ) ;
#89 = AXIS2_PLACEMENT_3D ( 'NONE', #136, #46, #103 ) ;
#90 = SURFACE_STYLE_USAGE ( .BOTH. , #162 ) ;
#91 = SURFACE_STYLE_FILL_AREA ( #15 ) ;
#92 = MECHANICAL_DESIGN_GEOMETRIC_PRESENTATION_REPRESENTATION (  '', ( #21 ), #111 ) ;
#93 = ORIENTED_EDGE ( 'NONE', *, *, #137, .T. ) ;
#94 = EDGE_CURVE ( 'NONE', #237, #196, #44, .T. ) ;
#95 = ORIENTED_EDGE ( 'NONE', *, *, #137, .F. ) ;
#96 = EDGE_CURVE ( 'NONE', #88, #157, #182, .T. ) ;
#97 = SURFACE_STYLE_FILL_AREA ( #144 ) ;
#98 = DIRECTION ( 'NONE',  ( 0.0000000000000000000, 0.0000000000000000000, 1.000000000000000000 ) ) ;
#99 = PRESENTATION_LAYER_ASSIGNMENT (  '', '', ( #28 ) ) ;
#100 = APPLICATION_CONTEXT ( 'automotive_design' ) ;
#101 = CARTESIAN_POINT ( 'NONE',  ( 0.0000000000000000000, 77.14414226561778800, 0.0000000000000000000 ) ) ;
#102 =( LENGTH_UNIT ( ) NAMED_UNIT ( * ) SI_UNIT ( .MILLI., .METRE. ) );
#103 = DIRECTION ( 'NONE',  ( 0.0000000000000000000, 0.0000000000000000000, 1.000000000000000000 ) ) ;
#104 = DIRECTION ( 'NONE',  ( 0.0000000000000000000, -0.0000000000000000000, -1.000000000000000000 ) ) ;
#105 = SURFACE_SIDE_STYLE ('',( #112 ) ) ;
#106 =( NAMED_UNIT ( * ) SI_UNIT ( $, .STERADIAN. ) SOLID_ANGLE_UNIT ( ) );
#107 = PRODUCT_DEFINITION_SHAPE ( 'NONE', 'NONE',  #51 ) ;
#108 = VECTOR ( 'NONE', #230, 1000.000000000000000 ) ;
#109 = ADVANCED_FACE ( 'NONE', ( #126, #80 ), #7, .F. ) ;
#110 = ORIENTED_EDGE ( 'NONE', *, *, #55, .T. ) ;
#111 =( GEOMETRIC_REPRESENTATION_CONTEXT ( 3 ) GLOBAL_UNCERTAINTY_ASSIGNED_CONTEXT ( ( #76 ) ) GLOBAL_UNIT_ASSIGNED_CONTEXT ( ( #64, #118, #48 ) ) REPRESENTATION_CONTEXT ( 'NONE', 'WORKASPACE' ) );
#112 = SURFACE_STYLE_FILL_AREA ( #212 ) ;
#113 = ORIENTED_EDGE ( 'NONE', *, *, #1, .F. ) ;
#114 = DIRECTION ( 'NONE',  ( -0.0000000000000000000, 1.000000000000000000, -0.0000000000000000000 ) ) ;
#115 = CARTESIAN_POINT ( 'NONE',  ( 1.555301434917139800E-015, 0.0000000000000000000, -12.70000000000001000 ) ) ;
#116 =( NAMED_UNIT ( * ) PLANE_ANGLE_UNIT ( ) SI_UNIT ( $, .RADIAN. ) );
#117 = ORIENTED_EDGE ( 'NONE', *, *, #183, .F. ) ;
#118 =( NAMED_UNIT ( * ) PLANE_ANGLE_UNIT ( ) SI_UNIT ( $, .RADIAN. ) );
#119 = SHAPE_DEFINITION_REPRESENTATION ( #107, #74 ) ;
#120 = AXIS2_PLACEMENT_3D ( 'NONE', #70, #72, #154 ) ;
#121 = SURFACE_SIDE_STYLE ('',( #97 ) ) ;
#122 = FILL_AREA_STYLE_COLOUR ( '', #3 ) ;
#123 = EDGE_CURVE ( 'NONE', #204, #184, #194, .T. ) ;
#124 = EDGE_LOOP ( 'NONE', ( #206, #93, #39, #85 ) ) ;
#125 = DIRECTION ( 'NONE',  ( -0.0000000000000000000, 1.000000000000000000, -0.0000000000000000000 ) ) ;
#126 = FACE_OUTER_BOUND ( 'NONE', #130, .T. ) ;
#127 = FACE_OUTER_BOUND ( 'NONE', #69, .T. ) ;
#128 = PRODUCT_RELATED_PRODUCT_CATEGORY ( 'part', '', ( #167 ) ) ;
#129 = EDGE_CURVE ( 'NONE', #195, #226, #68, .T. ) ;
#130 = EDGE_LOOP ( 'NONE', ( #113, #20 ) ) ;
#131 = CARTESIAN_POINT ( 'NONE',  ( 0.0000000000000000000, 77.14414226561778800, 12.70000000000001000 ) ) ;
#132 = PRESENTATION_STYLE_ASSIGNMENT (( #29 ) ) ;
#133 = DIRECTION ( 'NONE',  ( -0.0000000000000000000, 1.000000000000000000, -0.0000000000000000000 ) ) ;
#134 = VECTOR ( 'NONE', #155, 1000.000000000000000 ) ;
#135 = DIRECTION ( 'NONE',  ( 0.0000000000000000000, 0.0000000000000000000, 1.000000000000000000 ) ) ;
#136 = CARTESIAN_POINT ( 'NONE',  ( 0.0000000000000000000, 2.500000000000002200, 0.0000000000000000000 ) ) ;
#137 = EDGE_CURVE ( 'NONE', #204, #226, #168, .T. ) ;
#138 =( NAMED_UNIT ( * ) SI_UNIT ( $, .STERADIAN. ) SOLID_ANGLE_UNIT ( ) );
#139 = ADVANCED_FACE ( 'NONE', ( #45 ), #37, .T. ) ;
#140 = DIRECTION ( 'NONE',  ( -0.0000000000000000000, 1.000000000000000000, 0.0000000000000000000 ) ) ;
#141 = PRODUCT_DEFINITION_FORMATION_WITH_SPECIFIED_SOURCE ( 'ÈÎºÎ', '', #167, .NOT_KNOWN. ) ;
#142 = EDGE_LOOP ( 'NONE', ( #110, #50 ) ) ;
#143 = SURFACE_STYLE_USAGE ( .BOTH. , #121 ) ;
#144 = FILL_AREA_STYLE ('',( #122 ) ) ;
#145 = LINE ( 'NONE', #9, #134 ) ;
#146 = AXIS2_PLACEMENT_3D ( 'NONE', #79, #208, #234 ) ;
#147 = ADVANCED_FACE ( 'NONE', ( #127 ), #47, .T. ) ;
#148 = ORIENTED_EDGE ( 'NONE', *, *, #17, .T. ) ;
#149 = ORIENTED_EDGE ( 'NONE', *, *, #1, .T. ) ;
#150 = ORIENTED_EDGE ( 'NONE', *, *, #96, .T. ) ;
#151 = MECHANICAL_DESIGN_GEOMETRIC_PRESENTATION_REPRESENTATION (  '', ( #28 ), #34 ) ;
#152 = CARTESIAN_POINT ( 'NONE',  ( 0.0000000000000000000, 77.14414226561778800, 10.00000000000000900 ) ) ;
#153 = DIRECTION ( 'NONE',  ( 0.0000000000000000000, 0.0000000000000000000, 1.000000000000000000 ) ) ;
#154 = DIRECTION ( 'NONE',  ( 0.0000000000000000000, 0.0000000000000000000, 1.000000000000000000 ) ) ;
#155 = DIRECTION ( 'NONE',  ( -0.0000000000000000000, 1.000000000000000000, -0.0000000000000000000 ) ) ;
#156 = DIRECTION ( 'NONE',  ( 0.0000000000000000000, 0.0000000000000000000, 1.000000000000000000 ) ) ;
#157 = VERTEX_POINT ( 'NONE', #175 ) ;
#158 = STYLED_ITEM ( 'NONE', ( #203 ), #202 ) ;
#159 =( NAMED_UNIT ( * ) SI_UNIT ( $, .STERADIAN. ) SOLID_ANGLE_UNIT ( ) );
#160 = DIRECTION ( 'NONE',  ( 1.000000000000000000, 0.0000000000000000000, 0.0000000000000000000 ) ) ;
#161 = CARTESIAN_POINT ( 'NONE',  ( 0.0000000000000000000, 2.500000000000002200, 10.00000000000000900 ) ) ;
#162 = SURFACE_SIDE_STYLE ('',( #241 ) ) ;
#163 = CIRCLE ( 'NONE', #180, 10.00000000000000900 ) ;
#164 = AXIS2_PLACEMENT_3D ( 'NONE', #215, #165, #160 ) ;
#165 = DIRECTION ( 'NONE',  ( 0.0000000000000000000, 0.0000000000000000000, 1.000000000000000000 ) ) ;
#166 = EDGE_CURVE ( 'NONE', #184, #204, #2, .T. ) ;
#167 = PRODUCT ( '511005', '511005', '', ( #18 ) ) ;
#168 = LINE ( 'NONE', #174, #108 ) ;
#169 = EDGE_LOOP ( 'NONE', ( #60, #4 ) ) ;
#170 = UNCERTAINTY_MEASURE_WITH_UNIT (LENGTH_MEASURE( 1.000000000000000100E-005 ), #193, 'distance_accuracy_value', 'NONE');
#171 = CARTESIAN_POINT ( 'NONE',  ( 0.0000000000000000000, 77.14414226561778800, 0.0000000000000000000 ) ) ;
#172 = VECTOR ( 'NONE', #61, 1000.000000000000000 ) ;
#173 = DIRECTION ( 'NONE',  ( 0.0000000000000000000, 0.0000000000000000000, 1.000000000000000000 ) ) ;
#174 = CARTESIAN_POINT ( 'NONE',  ( 1.224646799147354400E-015, 77.14414226561778800, -10.00000000000000900 ) ) ;
#175 = CARTESIAN_POINT ( 'NONE',  ( 0.0000000000000000000, 0.0000000000000000000, 12.70000000000001000 ) ) ;
#176 = DIRECTION ( 'NONE',  ( 0.0000000000000000000, 0.0000000000000000000, 1.000000000000000000 ) ) ;
#177 = DIRECTION ( 'NONE',  ( 0.0000000000000000000, 0.0000000000000000000, 1.000000000000000000 ) ) ;
#178 = SURFACE_STYLE_USAGE ( .BOTH. , #53 ) ;
#179 = EDGE_LOOP ( 'NONE', ( #95, #14, #148, #35 ) ) ;
#180 = AXIS2_PLACEMENT_3D ( 'NONE', #6, #125, #153 ) ;
#181 = CIRCLE ( 'NONE', #89, 12.70000000000001000 ) ;
#182 = CIRCLE ( 'NONE', #63, 12.70000000000001000 ) ;
#183 = EDGE_CURVE ( 'NONE', #88, #237, #145, .T. ) ;
#184 = VERTEX_POINT ( 'NONE', #82 ) ;
#185 = COLOUR_RGB ( '',1.000000000000000000, 1.000000000000000000, 1.000000000000000000 ) ;
#186 = PRESENTATION_STYLE_ASSIGNMENT (( #90 ) ) ;
#187 = CYLINDRICAL_SURFACE ( 'NONE', #191, 10.00000000000000900 ) ;
#188 =( GEOMETRIC_REPRESENTATION_CONTEXT ( 3 ) GLOBAL_UNCERTAINTY_ASSIGNED_CONTEXT ( ( #8 ) ) GLOBAL_UNIT_ASSIGNED_CONTEXT ( ( #102, #231, #27 ) ) REPRESENTATION_CONTEXT ( 'NONE', 'WORKASPACE' ) );
#189 = ORIENTED_EDGE ( 'NONE', *, *, #183, .T. ) ;
#190 = FACE_OUTER_BOUND ( 'NONE', #124, .T. ) ;
#191 = AXIS2_PLACEMENT_3D ( 'NONE', #171, #78, #176 ) ;
#192 = FILL_AREA_STYLE_COLOUR ( '', #33 ) ;
#193 =( LENGTH_UNIT ( ) NAMED_UNIT ( * ) SI_UNIT ( .MILLI., .METRE. ) );
#194 = CIRCLE ( 'NONE', #38, 10.00000000000000900 ) ;
#195 = VERTEX_POINT ( 'NONE', #161 ) ;
#196 = VERTEX_POINT ( 'NONE', #32 ) ;
#197 = DIRECTION ( 'NONE',  ( -0.0000000000000000000, 1.000000000000000000, -0.0000000000000000000 ) ) ;
#198 = AXIS2_PLACEMENT_3D ( 'NONE', #214, #238, #135 ) ;
#199 = ORIENTED_EDGE ( 'NONE', *, *, #129, .F. ) ;
#200 = MECHANICAL_DESIGN_GEOMETRIC_PRESENTATION_REPRESENTATION (  '', ( #223 ), #56 ) ;
#201 = CARTESIAN_POINT ( 'NONE',  ( 0.0000000000000000000, 0.0000000000000000000, 0.0000000000000000000 ) ) ;
#202 = MANIFOLD_SOLID_BREP ( 'Ðý×ª1', #41 ) ;
#203 = PRESENTATION_STYLE_ASSIGNMENT (( #178 ) ) ;
#204 = VERTEX_POINT ( 'NONE', #16 ) ;
#205 = DIRECTION ( 'NONE',  ( -0.0000000000000000000, 1.000000000000000000, -0.0000000000000000000 ) ) ;
#206 = ORIENTED_EDGE ( 'NONE', *, *, #123, .F. ) ;
#207 = CARTESIAN_POINT ( 'NONE',  ( 0.0000000000000000000, 77.14414226561778800, 0.0000000000000000000 ) ) ;
#208 = DIRECTION ( 'NONE',  ( -0.0000000000000000000, 1.000000000000000000, -0.0000000000000000000 ) ) ;
#209 = AXIS2_PLACEMENT_3D ( 'NONE', #24, #43, #104 ) ;
#210 = CARTESIAN_POINT ( 'NONE',  ( 1.224646799147354400E-015, 2.500000000000002200, -10.00000000000000900 ) ) ;
#211 = ADVANCED_FACE ( 'NONE', ( #224 ), #62, .F. ) ;
#212 = FILL_AREA_STYLE ('',( #66 ) ) ;
#213 = FILL_AREA_STYLE ('',( #71 ) ) ;
#214 = CARTESIAN_POINT ( 'NONE',  ( 0.0000000000000000000, 77.14414226561778800, 0.0000000000000000000 ) ) ;
#215 = CARTESIAN_POINT ( 'NONE',  ( 0.0000000000000000000, 0.0000000000000000000, 0.0000000000000000000 ) ) ;
#216 = CIRCLE ( 'NONE', #40, 12.70000000000001000 ) ;
#217 = APPLICATION_PROTOCOL_DEFINITION ( 'draft international standard', 'automotive_design', 1998, #100 ) ;
#218 = ADVANCED_FACE ( 'NONE', ( #221, #227 ), #233, .F. ) ;
#219 = AXIS2_PLACEMENT_3D ( 'NONE', #101, #133, #228 ) ;
#220 = ORIENTED_EDGE ( 'NONE', *, *, #94, .F. ) ;
#221 = FACE_BOUND ( 'NONE', #243, .T. ) ;
#222 = UNCERTAINTY_MEASURE_WITH_UNIT (LENGTH_MEASURE( 1.000000000000000100E-005 ), #31, 'distance_accuracy_value', 'NONE');
#223 = STYLED_ITEM ( 'NONE', ( #242 ), #211 ) ;
#224 = FACE_OUTER_BOUND ( 'NONE', #179, .T. ) ;
#225 = DIRECTION ( 'NONE',  ( -0.0000000000000000000, 1.000000000000000000, -0.0000000000000000000 ) ) ;
#226 = VERTEX_POINT ( 'NONE', #210 ) ;
#227 = FACE_OUTER_BOUND ( 'NONE', #142, .T. ) ;
#228 = DIRECTION ( 'NONE',  ( 0.0000000000000000000, 0.0000000000000000000, 1.000000000000000000 ) ) ;
#229 = UNCERTAINTY_MEASURE_WITH_UNIT (LENGTH_MEASURE( 1.000000000000000100E-005 ), #86, 'distance_accuracy_value', 'NONE');
#230 = DIRECTION ( 'NONE',  ( -0.0000000000000000000, 1.000000000000000000, -0.0000000000000000000 ) ) ;
#231 =( NAMED_UNIT ( * ) PLANE_ANGLE_UNIT ( ) SI_UNIT ( $, .RADIAN. ) );
#232 = CARTESIAN_POINT ( 'NONE',  ( 0.0000000000000000000, 0.0000000000000000000, 0.0000000000000000000 ) ) ;
#233 = PLANE ( 'NONE',  #209 ) ;
#234 = DIRECTION ( 'NONE',  ( 0.0000000000000000000, 0.0000000000000000000, 1.000000000000000000 ) ) ;
#235 =( NAMED_UNIT ( * ) PLANE_ANGLE_UNIT ( ) SI_UNIT ( $, .RADIAN. ) );
#236 = PRESENTATION_LAYER_ASSIGNMENT (  '', '', ( #158 ) ) ;
#237 = VERTEX_POINT ( 'NONE', #13 ) ;
#238 = DIRECTION ( 'NONE',  ( -0.0000000000000000000, 1.000000000000000000, -0.0000000000000000000 ) ) ;
#239 = APPLICATION_PROTOCOL_DEFINITION ( 'draft international standard', 'automotive_design', 1998, #87 ) ;
#240 = LINE ( 'NONE', #152, #172 ) ;
#241 = SURFACE_STYLE_FILL_AREA ( #213 ) ;
#242 = PRESENTATION_STYLE_ASSIGNMENT (( #143 ) ) ;
#243 = EDGE_LOOP ( 'NONE', ( #199, #19 ) ) ;
#244 = ORIENTED_EDGE ( 'NONE', *, *, #36, .T. ) ;
ENDSEC;
END-ISO-10303-21;
