ISO-10303-21;
HEADER;
FILE_DESCRIPTION (( 'STEP AP203' ),
    '1' );
FILE_NAME ('523804.STEP',
    '2022-12-15T01:53:04',
    ( '' ),
    ( '' ),
    'SwSTEP 2.0',
    'SolidWorks 2020',
    '' );
FILE_SCHEMA (( 'CONFIG_CONTROL_DESIGN' ));
ENDSEC;

DATA;
#1 = ORIENTED_EDGE ( 'NONE', *, *, #136, .F. ) ;
#2 = APPROVAL_PERSON_ORGANIZATION ( #68, #145, #128 ) ;
#3 =( GEOMETRIC_REPRESENTATION_CONTEXT ( 3 ) GLOBAL_UNCERTAINTY_ASSIGNED_CONTEXT ( ( #63 ) ) GLOBAL_UNIT_ASSIGNED_CONTEXT ( ( #216, #190, #310 ) ) REPRESENTATION_CONTEXT ( 'NONE', 'WORKASPACE' ) );
#4 = PERSON_AND_ORGANIZATION ( #281, #227 ) ;
#5 = ORIENTED_EDGE ( 'NONE', *, *, #176, .T. ) ;
#6 = VERTEX_POINT ( 'NONE', #369 ) ;
#7 = EDGE_LOOP ( 'NONE', ( #345 ) ) ;
#8 = FACE_BOUND ( 'NONE', #373, .T. ) ;
#9 = LOCAL_TIME ( 9, 53, 4.000000000000000000, #383 ) ;
#10 = APPROVAL_DATE_TIME ( #158, #164 ) ;
#11 = CARTESIAN_POINT ( 'NONE',  ( 0.000000000000000000, 0.1999999999999970690, 0.000000000000000000 ) ) ;
#12 = PERSON_AND_ORGANIZATION_ROLE ( 'creator' ) ;
#13 = FACE_OUTER_BOUND ( 'NONE', #366, .T. ) ;
#14 = AXIS2_PLACEMENT_3D ( 'NONE', #98, #289, #163 ) ;
#15 = CARTESIAN_POINT ( 'NONE',  ( 5.000000000000000000, 9.800000000000000711, -1.836970198721029194E-15 ) ) ;
#16 = CIRCLE ( 'NONE', #338, 3.200000000000000178 ) ;
#17 = DIRECTION ( 'NONE',  ( -0.000000000000000000, -1.000000000000000000, -0.000000000000000000 ) ) ;
#18 = APPROVAL_DATE_TIME ( #222, #145 ) ;
#19 = AXIS2_PLACEMENT_3D ( 'NONE', #299, #209, #174 ) ;
#20 = DIRECTION ( 'NONE',  ( 0.000000000000000000, 0.000000000000000000, 1.000000000000000000 ) ) ;
#21 = CIRCLE ( 'NONE', #19, 1.004999999999999893 ) ;
#22 = CARTESIAN_POINT ( 'NONE',  ( 0.000000000000000000, 0.1999999999999970690, 12.50000000000000000 ) ) ;
#23 = DIRECTION ( 'NONE',  ( 0.000000000000000000, 0.000000000000000000, 1.000000000000000000 ) ) ;
#24 = DIRECTION ( 'NONE',  ( 0.000000000000000000, 0.000000000000000000, 1.000000000000000000 ) ) ;
#25 = DIRECTION ( 'NONE',  ( 0.000000000000000000, 0.000000000000000000, -1.000000000000000000 ) ) ;
#26 = CARTESIAN_POINT ( 'NONE',  ( 5.000000000000000000, 0.1999999999999987899, 1.004999999999998117 ) ) ;
#27 = ADVANCED_FACE ( 'NONE', ( #155, #8 ), #116, .F. ) ;
#28 = VERTEX_POINT ( 'NONE', #26 ) ;
#29 = ORIENTED_EDGE ( 'NONE', *, *, #185, .F. ) ;
#30 = ADVANCED_FACE ( 'NONE', ( #95, #349 ), #351, .F. ) ;
#31 = EDGE_LOOP ( 'NONE', ( #1 ) ) ;
#32 = CIRCLE ( 'NONE', #259, 12.29999999999998828 ) ;
#33 = CARTESIAN_POINT ( 'NONE',  ( 0.000000000000000000, 0.000000000000000000, 3.399999999999996803 ) ) ;
#34 = ORIENTED_EDGE ( 'NONE', *, *, #75, .F. ) ;
#35 = CARTESIAN_POINT ( 'NONE',  ( 5.000000000000000000, 10.00000000000000000, 1.204999999999992522 ) ) ;
#36 = EDGE_LOOP ( 'NONE', ( #29 ) ) ;
#37 = ORIENTED_EDGE ( 'NONE', *, *, #298, .F. ) ;
#38 = LOCAL_TIME ( 9, 53, 4.000000000000000000, #318 ) ;
#39 = DIRECTION ( 'NONE',  ( 0.000000000000000000, 1.000000000000000000, 0.000000000000000000 ) ) ;
#40 = ADVANCED_FACE ( 'NONE', ( #376, #13 ), #282, .T. ) ;
#41 = DIRECTION ( 'NONE',  ( 0.000000000000000000, 0.000000000000000000, 1.000000000000000000 ) ) ;
#42 = EDGE_CURVE ( 'NONE', #324, #324, #385, .T. ) ;
#43 = FACE_BOUND ( 'NONE', #7, .T. ) ;
#44 = PERSON_AND_ORGANIZATION ( #281, #227 ) ;
#45 = FACE_BOUND ( 'NONE', #283, .T. ) ;
#46 = DIRECTION ( 'NONE',  ( -0.000000000000000000, -1.000000000000000000, -0.000000000000000000 ) ) ;
#47 = CONICAL_SURFACE ( 'NONE', #221, 1.004999999999999893, 0.7853981633974461696 ) ;
#48 = MANIFOLD_SOLID_BREP ( 'µ¹½Ç1', #346 ) ;
#49 = CARTESIAN_POINT ( 'NONE',  ( 0.000000000000000000, 9.799999999999990052, 0.000000000000000000 ) ) ;
#50 = AXIS2_PLACEMENT_3D ( 'NONE', #179, #170, #111 ) ;
#51 = CIRCLE ( 'NONE', #276, 1.205000000000004734 ) ;
#52 = FACE_OUTER_BOUND ( 'NONE', #86, .T. ) ;
#53 = CC_DESIGN_PERSON_AND_ORGANIZATION_ASSIGNMENT ( #257, #261, ( #177 ) ) ;
#54 = CARTESIAN_POINT ( 'NONE',  ( -5.000000000000000000, 9.799999999999993605, 0.000000000000000000 ) ) ;
#55 = PLANE ( 'NONE',  #328 ) ;
#56 = CC_DESIGN_APPROVAL ( #145, ( #177 ) ) ;
#57 = CARTESIAN_POINT ( 'NONE',  ( -5.000000000000000000, 0.1999999999999987899, 1.004999999999999893 ) ) ;
#58 = EDGE_CURVE ( 'NONE', #137, #137, #295, .T. ) ;
#59 = VERTEX_POINT ( 'NONE', #154 ) ;
#60 = EDGE_LOOP ( 'NONE', ( #37 ) ) ;
#61 = APPROVAL_ROLE ( '' ) ;
#62 = EDGE_LOOP ( 'NONE', ( #252 ) ) ;
#63 = UNCERTAINTY_MEASURE_WITH_UNIT (LENGTH_MEASURE( 1.000000000000000082E-05 ), #216, 'distance_accuracy_value', 'NONE');
#64 = CARTESIAN_POINT ( 'NONE',  ( 0.000000000000000000, 10.00000000000000000, 3.400000000000010569 ) ) ;
#65 = EDGE_LOOP ( 'NONE', ( #191 ) ) ;
#66 = EDGE_LOOP ( 'NONE', ( #309 ) ) ;
#67 = CIRCLE ( 'NONE', #271, 1.204999999999997851 ) ;
#68 = PERSON_AND_ORGANIZATION ( #281, #227 ) ;
#69 = ORIENTED_EDGE ( 'NONE', *, *, #356, .F. ) ;
#70 = AXIS2_PLACEMENT_3D ( 'NONE', #223, #348, #195 ) ;
#71 = AXIS2_PLACEMENT_3D ( 'NONE', #265, #205, #20 ) ;
#72 = DIRECTION ( 'NONE',  ( -0.000000000000000000, -1.000000000000000000, -0.000000000000000000 ) ) ;
#73 = CC_DESIGN_SECURITY_CLASSIFICATION ( #177, ( #379 ) ) ;
#74 = FACE_OUTER_BOUND ( 'NONE', #340, .T. ) ;
#75 = EDGE_CURVE ( 'NONE', #28, #28, #272, .T. ) ;
#76 = DIRECTION ( 'NONE',  ( 0.000000000000000000, 1.000000000000000000, 0.000000000000000000 ) ) ;
#77 = CARTESIAN_POINT ( 'NONE',  ( 0.000000000000000000, 0.1999999999999970690, 0.000000000000000000 ) ) ;
#78 = CARTESIAN_POINT ( 'NONE',  ( 0.000000000000000000, 0.000000000000000000, 0.000000000000000000 ) ) ;
#79 = DIRECTION ( 'NONE',  ( 0.000000000000000000, 1.000000000000000000, 0.000000000000000000 ) ) ;
#80 = DIRECTION ( 'NONE',  ( 0.000000000000000000, -0.000000000000000000, 1.000000000000000000 ) ) ;
#81 = AXIS2_PLACEMENT_3D ( 'NONE', #323, #286, #129 ) ;
#82 = AXIS2_PLACEMENT_3D ( 'NONE', #49, #107, #235 ) ;
#83 = DIRECTION ( 'NONE',  ( 0.000000000000000000, 1.000000000000000000, 0.000000000000000000 ) ) ;
#84 = FACE_BOUND ( 'NONE', #36, .T. ) ;
#85 = CARTESIAN_POINT ( 'NONE',  ( -5.000000000000000000, 10.00000000000000000, 0.000000000000000000 ) ) ;
#86 = EDGE_LOOP ( 'NONE', ( #120 ) ) ;
#87 = CARTESIAN_POINT ( 'NONE',  ( 5.000000000000000000, 0.000000000000000000, 1.204999999999996074 ) ) ;
#88 = ORIENTED_EDGE ( 'NONE', *, *, #387, .T. ) ;
#89 = CARTESIAN_POINT ( 'NONE',  ( 0.000000000000000000, 9.799999999999990052, 12.50000000000000000 ) ) ;
#90 = EDGE_LOOP ( 'NONE', ( #303 ) ) ;
#91 = CC_DESIGN_PERSON_AND_ORGANIZATION_ASSIGNMENT ( #44, #321, ( #379 ) ) ;
#92 = EDGE_LOOP ( 'NONE', ( #213 ) ) ;
#93 = DIRECTION ( 'NONE',  ( 0.000000000000000000, 0.000000000000000000, 1.000000000000000000 ) ) ;
#94 = ORIENTED_EDGE ( 'NONE', *, *, #151, .T. ) ;
#95 = FACE_OUTER_BOUND ( 'NONE', #65, .T. ) ;
#96 = ADVANCED_FACE ( 'NONE', ( #203, #45 ), #105, .F. ) ;
#97 = CC_DESIGN_PERSON_AND_ORGANIZATION_ASSIGNMENT ( #4, #335, ( #175 ) ) ;
#98 = CARTESIAN_POINT ( 'NONE',  ( 0.000000000000000000, 10.00000000000000000, 0.000000000000000000 ) ) ;
#99 = APPROVAL_PERSON_ORGANIZATION ( #146, #188, #61 ) ;
#100 = CIRCLE ( 'NONE', #82, 12.50000000000000000 ) ;
#101 = DATE_AND_TIME ( #103, #147 ) ;
#102 = DIRECTION ( 'NONE',  ( 0.000000000000000000, 1.000000000000000000, 0.000000000000000000 ) ) ;
#103 = CALENDAR_DATE ( 2022, 15, 12 ) ;
#104 = CARTESIAN_POINT ( 'NONE',  ( 5.000000000000000000, 0.1999999999999987899, -1.836970198721029194E-15 ) ) ;
#105 = CONICAL_SURFACE ( 'NONE', #333, 3.200000000000000178, 0.7853981633974514986 ) ;
#106 = DIRECTION ( 'NONE',  ( 0.000000000000000000, 0.000000000000000000, 1.000000000000000000 ) ) ;
#107 = DIRECTION ( 'NONE',  ( 0.000000000000000000, -1.000000000000000000, 0.000000000000000000 ) ) ;
#108 = CARTESIAN_POINT ( 'NONE',  ( -5.000000000000000000, 10.00000000000000000, 0.000000000000000000 ) ) ;
#109 = ADVANCED_FACE ( 'NONE', ( #43, #74 ), #134, .F. ) ;
#110 = ADVANCED_FACE ( 'NONE', ( #292, #384 ), #313, .F. ) ;
#111 = DIRECTION ( 'NONE',  ( 0.000000000000000000, 0.000000000000000000, -1.000000000000000000 ) ) ;
#112 = FACE_OUTER_BOUND ( 'NONE', #396, .T. ) ;
#113 = ADVANCED_BREP_SHAPE_REPRESENTATION ( '523804', ( #48, #275 ), #3 ) ;
#114 = CARTESIAN_POINT ( 'NONE',  ( 5.000000000000000000, 0.000000000000000000, -1.836970198721029194E-15 ) ) ;
#115 = CALENDAR_DATE ( 2022, 15, 12 ) ;
#116 = CONICAL_SURFACE ( 'NONE', #264, 1.004999999999999893, 0.7853981633974375098 ) ;
#117 = EDGE_LOOP ( 'NONE', ( #94 ) ) ;
#118 = APPLICATION_PROTOCOL_DEFINITION ( 'international standard', 'config_control_design', 1994, #390 ) ;
#119 = APPROVAL_PERSON_ORGANIZATION ( #196, #164, #199 ) ;
#120 = ORIENTED_EDGE ( 'NONE', *, *, #176, .F. ) ;
#121 = MECHANICAL_CONTEXT ( 'NONE', #368, 'mechanical' ) ;
#122 = EDGE_LOOP ( 'NONE', ( #88 ) ) ;
#123 = CARTESIAN_POINT ( 'NONE',  ( -5.000000000000000000, 10.00000000000000000, 1.205000000000004734 ) ) ;
#124 = ORIENTED_EDGE ( 'NONE', *, *, #357, .F. ) ;
#125 = VERTEX_POINT ( 'NONE', #123 ) ;
#126 = CARTESIAN_POINT ( 'NONE',  ( 5.000000000000000000, 9.800000000000000711, -1.836970198721029194E-15 ) ) ;
#127 = DIRECTION ( 'NONE',  ( -0.000000000000000000, -1.000000000000000000, -0.000000000000000000 ) ) ;
#128 = APPROVAL_ROLE ( '' ) ;
#129 = DIRECTION ( 'NONE',  ( 0.000000000000000000, 0.000000000000000000, 1.000000000000000000 ) ) ;
#130 = FACE_OUTER_BOUND ( 'NONE', #215, .T. ) ;
#131 = FACE_OUTER_BOUND ( 'NONE', #62, .T. ) ;
#132 = SECURITY_CLASSIFICATION_LEVEL ( 'unclassified' ) ;
#133 = DIRECTION ( 'NONE',  ( -0.000000000000000000, -1.000000000000000000, -0.000000000000000000 ) ) ;
#134 = CONICAL_SURFACE ( 'NONE', #301, 3.399999999999996803, 0.7853981633974471688 ) ;
#135 = DIRECTION ( 'NONE',  ( 0.000000000000000000, 0.000000000000000000, 1.000000000000000000 ) ) ;
#136 = EDGE_CURVE ( 'NONE', #339, #339, #359, .T. ) ;
#137 = VERTEX_POINT ( 'NONE', #33 ) ;
#138 = EDGE_CURVE ( 'NONE', #152, #152, #16, .T. ) ;
#139 = DIRECTION ( 'NONE',  ( 0.000000000000000000, 1.000000000000000000, 0.000000000000000000 ) ) ;
#140 = FACE_BOUND ( 'NONE', #192, .T. ) ;
#141 = DIRECTION ( 'NONE',  ( 0.000000000000000000, -0.000000000000000000, 1.000000000000000000 ) ) ;
#142 = CARTESIAN_POINT ( 'NONE',  ( 0.000000000000000000, 0.000000000000000000, 0.000000000000000000 ) ) ;
#143 = APPROVAL_DATE_TIME ( #306, #188 ) ;
#144 = EDGE_LOOP ( 'NONE', ( #124 ) ) ;
#145 = APPROVAL ( #288, 'Î´Ö¸¶¨' ) ;
#146 = PERSON_AND_ORGANIZATION ( #281, #227 ) ;
#147 = LOCAL_TIME ( 9, 53, 4.000000000000000000, #316 ) ;
#148 = AXIS2_PLACEMENT_3D ( 'NONE', #334, #83, #135 ) ;
#149 = ADVANCED_FACE ( 'NONE', ( #284, #319 ), #377, .T. ) ;
#150 = ORIENTED_EDGE ( 'NONE', *, *, #151, .F. ) ;
#151 = EDGE_CURVE ( 'NONE', #241, #241, #184, .T. ) ;
#152 = VERTEX_POINT ( 'NONE', #305 ) ;
#153 = ORIENTED_EDGE ( 'NONE', *, *, #298, .T. ) ;
#154 = CARTESIAN_POINT ( 'NONE',  ( -5.000000000000000000, 9.799999999999993605, 1.004999999999999893 ) ) ;
#155 = FACE_OUTER_BOUND ( 'NONE', #217, .T. ) ;
#156 = AXIS2_PLACEMENT_3D ( 'NONE', #386, #322, #262 ) ;
#157 = DESIGN_CONTEXT ( 'detailed design', #390, 'design' ) ;
#158 = DATE_AND_TIME ( #194, #234 ) ;
#159 = CC_DESIGN_APPROVAL ( #164, ( #379 ) ) ;
#160 = EDGE_LOOP ( 'NONE', ( #183 ) ) ;
#161 = DATE_TIME_ROLE ( 'creation_date' ) ;
#162 = DIRECTION ( 'NONE',  ( -0.000000000000000000, -1.000000000000000000, -0.000000000000000000 ) ) ;
#163 = DIRECTION ( 'NONE',  ( 0.000000000000000000, 0.000000000000000000, -1.000000000000000000 ) ) ;
#164 = APPROVAL ( #291, 'Î´Ö¸¶¨' ) ;
#165 = CALENDAR_DATE ( 2022, 15, 12 ) ;
#166 = CARTESIAN_POINT ( 'NONE',  ( 0.000000000000000000, 9.799999999999991829, 0.000000000000000000 ) ) ;
#167 = PERSON_AND_ORGANIZATION ( #281, #227 ) ;
#168 = CARTESIAN_POINT ( 'NONE',  ( -5.000000000000000000, 0.000000000000000000, 0.000000000000000000 ) ) ;
#169 = AXIS2_PLACEMENT_3D ( 'NONE', #382, #127, #232 ) ;
#170 = DIRECTION ( 'NONE',  ( -0.000000000000000000, -1.000000000000000000, -0.000000000000000000 ) ) ;
#171 = AXIS2_PLACEMENT_3D ( 'NONE', #78, #317, #202 ) ;
#172 = ADVANCED_FACE ( 'NONE', ( #131, #130 ), #260, .F. ) ;
#173 = AXIS2_PLACEMENT_3D ( 'NONE', #108, #267, #25 ) ;
#174 = DIRECTION ( 'NONE',  ( 0.000000000000000000, 0.000000000000000000, 1.000000000000000000 ) ) ;
#175 = PRODUCT ( '523804', '523804', '', ( #121 ) ) ;
#176 = EDGE_CURVE ( 'NONE', #6, #6, #67, .T. ) ;
#177 = SECURITY_CLASSIFICATION ( '', '', #132 ) ;
#178 = LOCAL_TIME ( 9, 53, 4.000000000000000000, #277 ) ;
#179 = CARTESIAN_POINT ( 'NONE',  ( -5.000000000000000000, 0.000000000000000000, 0.000000000000000000 ) ) ;
#180 = CARTESIAN_POINT ( 'NONE',  ( 0.000000000000000000, 10.00000000000000000, 0.000000000000000000 ) ) ;
#181 = CARTESIAN_POINT ( 'NONE',  ( 0.000000000000000000, 0.000000000000000000, 0.000000000000000000 ) ) ;
#182 = CARTESIAN_POINT ( 'NONE',  ( 5.000000000000000000, 9.800000000000000711, 1.004999999999998117 ) ) ;
#183 = ORIENTED_EDGE ( 'NONE', *, *, #356, .T. ) ;
#184 = CIRCLE ( 'NONE', #352, 1.004999999999999893 ) ;
#185 = EDGE_CURVE ( 'NONE', #372, #372, #293, .T. ) ;
#186 = CARTESIAN_POINT ( 'NONE',  ( 0.000000000000000000, 0.000000000000000000, 12.30000000000000426 ) ) ;
#187 = ORIENTED_EDGE ( 'NONE', *, *, #58, .T. ) ;
#188 = APPROVAL ( #395, 'Î´Ö¸¶¨' ) ;
#189 = EDGE_LOOP ( 'NONE', ( #34 ) ) ;
#190 =( NAMED_UNIT ( * ) PLANE_ANGLE_UNIT ( ) SI_UNIT ( $, .RADIAN. ) );
#191 = ORIENTED_EDGE ( 'NONE', *, *, #75, .T. ) ;
#192 = EDGE_LOOP ( 'NONE', ( #5 ) ) ;
#193 = AXIS2_PLACEMENT_3D ( 'NONE', #180, #236, #80 ) ;
#194 = CALENDAR_DATE ( 2022, 15, 12 ) ;
#195 = DIRECTION ( 'NONE',  ( 0.000000000000000000, 0.000000000000000000, -1.000000000000000000 ) ) ;
#196 = PERSON_AND_ORGANIZATION ( #281, #227 ) ;
#197 = CARTESIAN_POINT ( 'NONE',  ( 5.000000000000000000, 0.000000000000000000, -1.836970198721029194E-15 ) ) ;
#198 = PRODUCT_RELATED_PRODUCT_CATEGORY ( 'detail', '', ( #175 ) ) ;
#199 = APPROVAL_ROLE ( '' ) ;
#200 = DIRECTION ( 'NONE',  ( 0.000000000000000000, 0.000000000000000000, -1.000000000000000000 ) ) ;
#201 = SHAPE_DEFINITION_REPRESENTATION ( #250, #113 ) ;
#202 = DIRECTION ( 'NONE',  ( 0.000000000000000000, 0.000000000000000000, 1.000000000000000000 ) ) ;
#203 = FACE_OUTER_BOUND ( 'NONE', #31, .T. ) ;
#204 = DIRECTION ( 'NONE',  ( 0.000000000000000000, 0.000000000000000000, 1.000000000000000000 ) ) ;
#205 = DIRECTION ( 'NONE',  ( -0.000000000000000000, -1.000000000000000000, -0.000000000000000000 ) ) ;
#206 = AXIS2_PLACEMENT_3D ( 'NONE', #114, #239, #362 ) ;
#207 = FACE_BOUND ( 'NONE', #92, .T. ) ;
#208 = CC_DESIGN_DATE_AND_TIME_ASSIGNMENT ( #381, #343, ( #177 ) ) ;
#209 = DIRECTION ( 'NONE',  ( 0.000000000000000000, 1.000000000000000000, 0.000000000000000000 ) ) ;
#210 = AXIS2_PLACEMENT_3D ( 'NONE', #11, #290, #229 ) ;
#211 = DIRECTION ( 'NONE',  ( -0.000000000000000000, -1.000000000000000000, -0.000000000000000000 ) ) ;
#212 = VERTEX_POINT ( 'NONE', #251 ) ;
#213 = ORIENTED_EDGE ( 'NONE', *, *, #315, .F. ) ;
#214 = ADVANCED_FACE ( 'NONE', ( #269, #207 ), #47, .F. ) ;
#215 = EDGE_LOOP ( 'NONE', ( #249 ) ) ;
#216 =( LENGTH_UNIT ( ) NAMED_UNIT ( * ) SI_UNIT ( .MILLI., .METRE. ) );
#217 = EDGE_LOOP ( 'NONE', ( #253 ) ) ;
#218 = ORIENTED_EDGE ( 'NONE', *, *, #42, .F. ) ;
#219 = DIRECTION ( 'NONE',  ( 1.000000000000000000, 0.000000000000000000, 0.000000000000000000 ) ) ;
#220 = ORIENTED_EDGE ( 'NONE', *, *, #325, .F. ) ;
#221 = AXIS2_PLACEMENT_3D ( 'NONE', #54, #139, #23 ) ;
#222 = DATE_AND_TIME ( #347, #9 ) ;
#223 = CARTESIAN_POINT ( 'NONE',  ( 5.000000000000000000, 10.00000000000000000, -1.836970198721029194E-15 ) ) ;
#224 = AXIS2_PLACEMENT_3D ( 'NONE', #104, #72, #41 ) ;
#225 = CONICAL_SURFACE ( 'NONE', #50, 1.204999999999997851, 0.7853981633974461696 ) ;
#226 = CC_DESIGN_PERSON_AND_ORGANIZATION_ASSIGNMENT ( #167, #350, ( #379 ) ) ;
#227 = ORGANIZATION ( 'Î´Ö¸¶¨', 'Î´Ö¸¶¨', '' ) ;
#228 = CIRCLE ( 'NONE', #206, 1.204999999999997851 ) ;
#229 = DIRECTION ( 'NONE',  ( 0.000000000000000000, 0.000000000000000000, 1.000000000000000000 ) ) ;
#230 = ADVANCED_FACE ( 'NONE', ( #297, #237 ), #240, .T. ) ;
#231 = DIRECTION ( 'NONE',  ( 0.000000000000000000, 0.000000000000000000, 1.000000000000000000 ) ) ;
#232 = DIRECTION ( 'NONE',  ( 0.000000000000000000, 0.000000000000000000, -1.000000000000000000 ) ) ;
#233 = DIRECTION ( 'NONE',  ( 0.000000000000000000, 0.000000000000000000, -1.000000000000000000 ) ) ;
#234 = LOCAL_TIME ( 9, 53, 4.000000000000000000, #285 ) ;
#235 = DIRECTION ( 'NONE',  ( 0.000000000000000000, 0.000000000000000000, 1.000000000000000000 ) ) ;
#236 = DIRECTION ( 'NONE',  ( 0.000000000000000000, 1.000000000000000000, 0.000000000000000000 ) ) ;
#237 = FACE_BOUND ( 'NONE', #90, .T. ) ;
#238 = FACE_BOUND ( 'NONE', #394, .T. ) ;
#239 = DIRECTION ( 'NONE',  ( 0.000000000000000000, 1.000000000000000000, 0.000000000000000000 ) ) ;
#240 = CONICAL_SURFACE ( 'NONE', #243, 12.29999999999998828, 0.7853981633974526089 ) ;
#241 = VERTEX_POINT ( 'NONE', #182 ) ;
#242 = ADVANCED_FACE ( 'NONE', ( #391, #393, #358, #266 ), #361, .T. ) ;
#243 = AXIS2_PLACEMENT_3D ( 'NONE', #360, #330, #392 ) ;
#244 = EDGE_LOOP ( 'NONE', ( #337 ) ) ;
#245 = EDGE_CURVE ( 'NONE', #246, #246, #296, .T. ) ;
#246 = VERTEX_POINT ( 'NONE', #35 ) ;
#247 = ORIENTED_EDGE ( 'NONE', *, *, #245, .T. ) ;
#248 = VERTEX_POINT ( 'NONE', #365 ) ;
#249 = ORIENTED_EDGE ( 'NONE', *, *, #325, .T. ) ;
#250 = PRODUCT_DEFINITION_SHAPE ( 'NONE', 'NONE',  #258 ) ;
#251 = CARTESIAN_POINT ( 'NONE',  ( 0.000000000000000000, 10.00000000000000000, 12.29999999999998828 ) ) ;
#252 = ORIENTED_EDGE ( 'NONE', *, *, #138, .T. ) ;
#253 = ORIENTED_EDGE ( 'NONE', *, *, #245, .F. ) ;
#254 = DIRECTION ( 'NONE',  ( 0.000000000000000000, 0.000000000000000000, 1.000000000000000000 ) ) ;
#255 = DIRECTION ( 'NONE',  ( 0.000000000000000000, 0.000000000000000000, 1.000000000000000000 ) ) ;
#256 = ADVANCED_FACE ( 'NONE', ( #326, #112 ), #302, .F. ) ;
#257 = PERSON_AND_ORGANIZATION ( #281, #227 ) ;
#258 = PRODUCT_DEFINITION ( 'Î´Öª', '', #379, #157 ) ;
#259 = AXIS2_PLACEMENT_3D ( 'NONE', #355, #79, #204 ) ;
#260 = CYLINDRICAL_SURFACE ( 'NONE', #169, 3.200000000000000178 ) ;
#261 = PERSON_AND_ORGANIZATION_ROLE ( 'classification_officer' ) ;
#262 = DIRECTION ( 'NONE',  ( 0.000000000000000000, 0.000000000000000000, 1.000000000000000000 ) ) ;
#263 = CARTESIAN_POINT ( 'NONE',  ( 0.000000000000000000, 0.000000000000000000, 0.000000000000000000 ) ) ;
#264 = AXIS2_PLACEMENT_3D ( 'NONE', #126, #375, #231 ) ;
#265 = CARTESIAN_POINT ( 'NONE',  ( 5.000000000000000000, 10.00000000000000000, -1.836970198721029194E-15 ) ) ;
#266 = FACE_BOUND ( 'NONE', #364, .T. ) ;
#267 = DIRECTION ( 'NONE',  ( -0.000000000000000000, -1.000000000000000000, -0.000000000000000000 ) ) ;
#268 = FACE_BOUND ( 'NONE', #160, .T. ) ;
#269 = FACE_OUTER_BOUND ( 'NONE', #144, .T. ) ;
#270 = ORIENTED_EDGE ( 'NONE', *, *, #185, .T. ) ;
#271 = AXIS2_PLACEMENT_3D ( 'NONE', #168, #102, #354 ) ;
#272 = CIRCLE ( 'NONE', #224, 1.004999999999999893 ) ;
#273 = PERSON_AND_ORGANIZATION ( #281, #227 ) ;
#274 = ORIENTED_EDGE ( 'NONE', *, *, #58, .F. ) ;
#275 = AXIS2_PLACEMENT_3D ( 'NONE', #142, #93, #219 ) ;
#276 = AXIS2_PLACEMENT_3D ( 'NONE', #85, #211, #294 ) ;
#277 = COORDINATED_UNIVERSAL_TIME_OFFSET ( 8, 0, .AHEAD. ) ;
#278 = ORIENTED_EDGE ( 'NONE', *, *, #315, .T. ) ;
#279 = VERTEX_POINT ( 'NONE', #87 ) ;
#280 = ORIENTED_EDGE ( 'NONE', *, *, #42, .T. ) ;
#281 = PERSON ( 'Î´Ö¸¶¨', 'Î´Ö¸¶¨', 'Î´Ö¸¶¨', ('Î´Ö¸¶¨'), ('Î´Ö¸¶¨'), ('Î´Ö¸¶¨') ) ;
#282 = CONICAL_SURFACE ( 'NONE', #210, 12.50000000000000000, 0.7853981633974482790 ) ;
#283 = EDGE_LOOP ( 'NONE', ( #220 ) ) ;
#284 = FACE_OUTER_BOUND ( 'NONE', #312, .T. ) ;
#285 = COORDINATED_UNIVERSAL_TIME_OFFSET ( 8, 0, .AHEAD. ) ;
#286 = DIRECTION ( 'NONE',  ( -0.000000000000000000, -1.000000000000000000, -0.000000000000000000 ) ) ;
#287 = ADVANCED_FACE ( 'NONE', ( #84, #52 ), #225, .F. ) ;
#288 = APPROVAL_STATUS ( 'not_yet_approved' ) ;
#289 = DIRECTION ( 'NONE',  ( -0.000000000000000000, -1.000000000000000000, -0.000000000000000000 ) ) ;
#290 = DIRECTION ( 'NONE',  ( -0.000000000000000000, 1.000000000000000000, -0.000000000000000000 ) ) ;
#291 = APPROVAL_STATUS ( 'not_yet_approved' ) ;
#292 = FACE_BOUND ( 'NONE', #189, .T. ) ;
#293 = CIRCLE ( 'NONE', #344, 1.004999999999999893 ) ;
#294 = DIRECTION ( 'NONE',  ( 0.000000000000000000, 0.000000000000000000, 1.000000000000000000 ) ) ;
#295 = CIRCLE ( 'NONE', #171, 3.399999999999996803 ) ;
#296 = CIRCLE ( 'NONE', #71, 1.204999999999994298 ) ;
#297 = FACE_OUTER_BOUND ( 'NONE', #66, .T. ) ;
#298 = EDGE_CURVE ( 'NONE', #341, #341, #363, .T. ) ;
#299 = CARTESIAN_POINT ( 'NONE',  ( -5.000000000000000000, 9.799999999999993605, 0.000000000000000000 ) ) ;
#300 = CC_DESIGN_DATE_AND_TIME_ASSIGNMENT ( #101, #161, ( #258 ) ) ;
#301 = AXIS2_PLACEMENT_3D ( 'NONE', #263, #162, #200 ) ;
#302 = CYLINDRICAL_SURFACE ( 'NONE', #173, 1.004999999999999893 ) ;
#303 = ORIENTED_EDGE ( 'NONE', *, *, #387, .F. ) ;
#304 = DIRECTION ( 'NONE',  ( 0.000000000000000000, 1.000000000000000000, 0.000000000000000000 ) ) ;
#305 = CARTESIAN_POINT ( 'NONE',  ( 0.000000000000000000, 0.1999999999999970690, 3.200000000000000178 ) ) ;
#306 = DATE_AND_TIME ( #115, #178 ) ;
#307 = EDGE_LOOP ( 'NONE', ( #153 ) ) ;
#308 = VERTEX_POINT ( 'NONE', #89 ) ;
#309 = ORIENTED_EDGE ( 'NONE', *, *, #367, .F. ) ;
#310 =( NAMED_UNIT ( * ) SI_UNIT ( $, .STERADIAN. ) SOLID_ANGLE_UNIT ( ) );
#311 = EDGE_LOOP ( 'NONE', ( #270 ) ) ;
#312 = EDGE_LOOP ( 'NONE', ( #280 ) ) ;
#313 = CONICAL_SURFACE ( 'NONE', #378, 1.204999999999997851, 0.7853981633974461696 ) ;
#314 = ORIENTED_EDGE ( 'NONE', *, *, #357, .T. ) ;
#315 = EDGE_CURVE ( 'NONE', #59, #59, #21, .T. ) ;
#316 = COORDINATED_UNIVERSAL_TIME_OFFSET ( 8, 0, .AHEAD. ) ;
#317 = DIRECTION ( 'NONE',  ( 0.000000000000000000, 1.000000000000000000, 0.000000000000000000 ) ) ;
#318 = COORDINATED_UNIVERSAL_TIME_OFFSET ( 8, 0, .AHEAD. ) ;
#319 = FACE_OUTER_BOUND ( 'NONE', #336, .T. ) ;
#320 = DIRECTION ( 'NONE',  ( 0.000000000000000000, 0.000000000000000000, 1.000000000000000000 ) ) ;
#321 = PERSON_AND_ORGANIZATION_ROLE ( 'creator' ) ;
#322 = DIRECTION ( 'NONE',  ( -0.000000000000000000, 1.000000000000000000, -0.000000000000000000 ) ) ;
#323 = CARTESIAN_POINT ( 'NONE',  ( 0.000000000000000000, 10.00000000000000000, 0.000000000000000000 ) ) ;
#324 = VERTEX_POINT ( 'NONE', #22 ) ;
#325 = EDGE_CURVE ( 'NONE', #248, #248, #380, .T. ) ;
#326 = FACE_OUTER_BOUND ( 'NONE', #311, .T. ) ;
#327 = CC_DESIGN_APPROVAL ( #188, ( #258 ) ) ;
#328 = AXIS2_PLACEMENT_3D ( 'NONE', #181, #304, #141 ) ;
#329 = ADVANCED_FACE ( 'NONE', ( #140, #268, #238, #332 ), #55, .F. ) ;
#330 = DIRECTION ( 'NONE',  ( 0.000000000000000000, -1.000000000000000000, 0.000000000000000000 ) ) ;
#331 = ORIENTED_EDGE ( 'NONE', *, *, #367, .T. ) ;
#332 = FACE_OUTER_BOUND ( 'NONE', #307, .T. ) ;
#333 = AXIS2_PLACEMENT_3D ( 'NONE', #166, #39, #254 ) ;
#334 = CARTESIAN_POINT ( 'NONE',  ( 0.000000000000000000, 9.799999999999991829, 0.000000000000000000 ) ) ;
#335 = PERSON_AND_ORGANIZATION_ROLE ( 'design_owner' ) ;
#336 = EDGE_LOOP ( 'NONE', ( #331 ) ) ;
#337 = ORIENTED_EDGE ( 'NONE', *, *, #136, .T. ) ;
#338 = AXIS2_PLACEMENT_3D ( 'NONE', #77, #46, #255 ) ;
#339 = VERTEX_POINT ( 'NONE', #64 ) ;
#340 = EDGE_LOOP ( 'NONE', ( #274 ) ) ;
#341 = VERTEX_POINT ( 'NONE', #186 ) ;
#342 = EDGE_LOOP ( 'NONE', ( #314 ) ) ;
#343 = DATE_TIME_ROLE ( 'classification_date' ) ;
#344 = AXIS2_PLACEMENT_3D ( 'NONE', #353, #133, #320 ) ;
#345 = ORIENTED_EDGE ( 'NONE', *, *, #138, .F. ) ;
#346 = CLOSED_SHELL ( 'NONE', ( #242, #329, #149, #172, #30, #256, #287, #110, #109, #40, #214, #96, #230, #27 ) ) ;
#347 = CALENDAR_DATE ( 2022, 15, 12 ) ;
#348 = DIRECTION ( 'NONE',  ( -0.000000000000000000, -1.000000000000000000, -0.000000000000000000 ) ) ;
#349 = FACE_OUTER_BOUND ( 'NONE', #117, .T. ) ;
#350 = PERSON_AND_ORGANIZATION_ROLE ( 'design_supplier' ) ;
#351 = CYLINDRICAL_SURFACE ( 'NONE', #70, 1.004999999999999893 ) ;
#352 = AXIS2_PLACEMENT_3D ( 'NONE', #15, #76, #106 ) ;
#353 = CARTESIAN_POINT ( 'NONE',  ( -5.000000000000000000, 0.1999999999999987899, 0.000000000000000000 ) ) ;
#354 = DIRECTION ( 'NONE',  ( 0.000000000000000000, 0.000000000000000000, 1.000000000000000000 ) ) ;
#355 = CARTESIAN_POINT ( 'NONE',  ( 0.000000000000000000, 10.00000000000000000, 0.000000000000000000 ) ) ;
#356 = EDGE_CURVE ( 'NONE', #279, #279, #228, .T. ) ;
#357 = EDGE_CURVE ( 'NONE', #125, #125, #51, .T. ) ;
#358 = FACE_OUTER_BOUND ( 'NONE', #122, .T. ) ;
#359 = CIRCLE ( 'NONE', #81, 3.400000000000010569 ) ;
#360 = CARTESIAN_POINT ( 'NONE',  ( 0.000000000000000000, 10.00000000000000000, 0.000000000000000000 ) ) ;
#361 = PLANE ( 'NONE',  #193 ) ;
#362 = DIRECTION ( 'NONE',  ( 0.000000000000000000, 0.000000000000000000, 1.000000000000000000 ) ) ;
#363 = CIRCLE ( 'NONE', #397, 12.30000000000000426 ) ;
#364 = EDGE_LOOP ( 'NONE', ( #247 ) ) ;
#365 = CARTESIAN_POINT ( 'NONE',  ( 0.000000000000000000, 9.799999999999991829, 3.200000000000000178 ) ) ;
#366 = EDGE_LOOP ( 'NONE', ( #218 ) ) ;
#367 = EDGE_CURVE ( 'NONE', #308, #308, #100, .T. ) ;
#368 = APPLICATION_CONTEXT ( 'configuration controlled 3d designs of mechanical parts and assemblies' ) ;
#369 = CARTESIAN_POINT ( 'NONE',  ( -5.000000000000000000, 0.000000000000000000, 1.204999999999997851 ) ) ;
#370 = CC_DESIGN_PERSON_AND_ORGANIZATION_ASSIGNMENT ( #273, #12, ( #258 ) ) ;
#371 = EDGE_LOOP ( 'NONE', ( #69 ) ) ;
#372 = VERTEX_POINT ( 'NONE', #57 ) ;
#373 = EDGE_LOOP ( 'NONE', ( #150 ) ) ;
#374 = APPLICATION_PROTOCOL_DEFINITION ( 'international standard', 'config_control_design', 1994, #368 ) ;
#375 = DIRECTION ( 'NONE',  ( 0.000000000000000000, 1.000000000000000000, 0.000000000000000000 ) ) ;
#376 = FACE_BOUND ( 'NONE', #60, .T. ) ;
#377 = CYLINDRICAL_SURFACE ( 'NONE', #14, 12.50000000000000000 ) ;
#378 = AXIS2_PLACEMENT_3D ( 'NONE', #197, #17, #233 ) ;
#379 = PRODUCT_DEFINITION_FORMATION_WITH_SPECIFIED_SOURCE ( 'ÈÎºÎ', '', #175, .NOT_KNOWN. ) ;
#380 = CIRCLE ( 'NONE', #148, 3.200000000000000178 ) ;
#381 = DATE_AND_TIME ( #165, #38 ) ;
#382 = CARTESIAN_POINT ( 'NONE',  ( 0.000000000000000000, 10.00000000000000000, 0.000000000000000000 ) ) ;
#383 = COORDINATED_UNIVERSAL_TIME_OFFSET ( 8, 0, .AHEAD. ) ;
#384 = FACE_OUTER_BOUND ( 'NONE', #371, .T. ) ;
#385 = CIRCLE ( 'NONE', #156, 12.50000000000000000 ) ;
#386 = CARTESIAN_POINT ( 'NONE',  ( 0.000000000000000000, 0.1999999999999970690, 0.000000000000000000 ) ) ;
#387 = EDGE_CURVE ( 'NONE', #212, #212, #32, .T. ) ;
#388 = CARTESIAN_POINT ( 'NONE',  ( 0.000000000000000000, 0.000000000000000000, 0.000000000000000000 ) ) ;
#389 = DIRECTION ( 'NONE',  ( -0.000000000000000000, -1.000000000000000000, -0.000000000000000000 ) ) ;
#390 = APPLICATION_CONTEXT ( 'configuration controlled 3d designs of mechanical parts and assemblies' ) ;
#391 = FACE_BOUND ( 'NONE', #342, .T. ) ;
#392 = DIRECTION ( 'NONE',  ( 0.000000000000000000, 0.000000000000000000, -1.000000000000000000 ) ) ;
#393 = FACE_BOUND ( 'NONE', #244, .T. ) ;
#394 = EDGE_LOOP ( 'NONE', ( #187 ) ) ;
#395 = APPROVAL_STATUS ( 'not_yet_approved' ) ;
#396 = EDGE_LOOP ( 'NONE', ( #278 ) ) ;
#397 = AXIS2_PLACEMENT_3D ( 'NONE', #388, #389, #24 ) ;
ENDSEC;
END-ISO-10303-21;
