ISO-10303-21;
HEADER;
FILE_DESCRIPTION (( 'STEP AP203' ),
    '1' );
FILE_NAME ('1.4.2.133-ZGH-25-DK0.6.STEP',
    '2024-04-06T05:15:01',
    ( '' ),
    ( '' ),
    'SwSTEP 2.0',
    'SolidWorks 2021',
    '' );
FILE_SCHEMA (( 'CONFIG_CONTROL_DESIGN' ));
ENDSEC;

DATA;
#1 = LINE ( 'NONE', #42, #194 ) ;
#2 = DIRECTION ( 'NONE',  ( 0.000000000000000000, 0.000000000000000000, -1.000000000000000000 ) ) ;
#3 = CC_DESIGN_SECURITY_CLASSIFICATION ( #89, ( #234 ) ) ;
#4 = DIRECTION ( 'NONE',  ( 0.000000000000000000, 1.000000000000000000, 0.000000000000000000 ) ) ;
#5 = DIRECTION ( 'NONE',  ( 1.000000000000000000, 0.000000000000000000, 0.000000000000000000 ) ) ;
#6 = APPLICATION_PROTOCOL_DEFINITION ( 'international standard', 'config_control_design', 1994, #199 ) ;
#7 = AXIS2_PLACEMENT_3D ( 'NONE', #122, #4, #196 ) ;
#8 = CC_DESIGN_PERSON_AND_ORGANIZATION_ASSIGNMENT ( #93, #129, ( #57 ) ) ;
#9 = CYLINDRICAL_SURFACE ( 'NONE', #37, 3.100000000000000089 ) ;
#10 = APPROVAL_DATE_TIME ( #54, #225 ) ;
#11 = APPROVAL_PERSON_ORGANIZATION ( #107, #132, #94 ) ;
#12 = ORIENTED_EDGE ( 'NONE', *, *, #143, .F. ) ;
#13 = APPROVAL_ROLE ( '' ) ;
#14 = PERSON_AND_ORGANIZATION ( #71, #20 ) ;
#15 = ADVANCED_FACE ( 'NONE', ( #226 ), #80, .T. ) ;
#16 = VERTEX_POINT ( 'NONE', #120 ) ;
#17 = DIRECTION ( 'NONE',  ( 0.000000000000000000, 0.000000000000000000, 1.000000000000000000 ) ) ;
#18 = EDGE_CURVE ( 'NONE', #148, #16, #1, .T. ) ;
#19 = VERTEX_POINT ( 'NONE', #43 ) ;
#20 = ORGANIZATION ( 'Î´Ö¸¶¨', 'Î´Ö¸¶¨', '' ) ;
#21 = AXIS2_PLACEMENT_3D ( 'NONE', #227, #82, #154 ) ;
#22 = DIRECTION ( 'NONE',  ( 0.000000000000000000, 1.000000000000000000, 0.000000000000000000 ) ) ;
#23 = EDGE_LOOP ( 'NONE', ( #133, #137 ) ) ;
#24 = CIRCLE ( 'NONE', #157, 3.100000000000000089 ) ;
#25 = CARTESIAN_POINT ( 'NONE',  ( 0.000000000000000000, -0.2999999999999999889, 0.000000000000000000 ) ) ;
#26 =( NAMED_UNIT ( * ) PLANE_ANGLE_UNIT ( ) SI_UNIT ( $, .RADIAN. ) );
#27 = DESIGN_CONTEXT ( 'detailed design', #199, 'design' ) ;
#28 = DIRECTION ( 'NONE',  ( 0.000000000000000000, 0.000000000000000000, 1.000000000000000000 ) ) ;
#29 = CARTESIAN_POINT ( 'NONE',  ( 0.000000000000000000, 0.2999999999999999889, -12.50000000000000000 ) ) ;
#30 = PRODUCT ( '1.4.2.133-ZGH-25-DK0.6', '1.4.2.133-ZGH-25-DK0.6', '', ( #87 ) ) ;
#31 = CC_DESIGN_PERSON_AND_ORGANIZATION_ASSIGNMENT ( #14, #96, ( #89 ) ) ;
#32 = ORIENTED_EDGE ( 'NONE', *, *, #203, .T. ) ;
#33 = PERSON_AND_ORGANIZATION_ROLE ( 'design_supplier' ) ;
#34 = AXIS2_PLACEMENT_3D ( 'NONE', #105, #179, #214 ) ;
#35 = ORIENTED_EDGE ( 'NONE', *, *, #244, .F. ) ;
#36 = AXIS2_PLACEMENT_3D ( 'NONE', #103, #40, #2 ) ;
#37 = AXIS2_PLACEMENT_3D ( 'NONE', #25, #195, #106 ) ;
#38 = APPROVAL_DATE_TIME ( #240, #132 ) ;
#39 = ORIENTED_EDGE ( 'NONE', *, *, #143, .T. ) ;
#40 = DIRECTION ( 'NONE',  ( -0.000000000000000000, -1.000000000000000000, -0.000000000000000000 ) ) ;
#41 = ORIENTED_EDGE ( 'NONE', *, *, #176, .F. ) ;
#42 = CARTESIAN_POINT ( 'NONE',  ( 3.796405077356794918E-16, -0.2999999999999999889, -3.100000000000000089 ) ) ;
#43 = CARTESIAN_POINT ( 'NONE',  ( 0.000000000000000000, -0.2999999999999999889, -12.50000000000000000 ) ) ;
#44 = PRODUCT_RELATED_PRODUCT_CATEGORY ( 'detail', '', ( #30 ) ) ;
#45 = ORIENTED_EDGE ( 'NONE', *, *, #203, .F. ) ;
#46 = CARTESIAN_POINT ( 'NONE',  ( 0.000000000000000000, -0.2999999999999999889, 0.000000000000000000 ) ) ;
#47 = AXIS2_PLACEMENT_3D ( 'NONE', #209, #116, #175 ) ;
#48 = PERSON_AND_ORGANIZATION ( #71, #20 ) ;
#49 = EDGE_CURVE ( 'NONE', #19, #200, #100, .T. ) ;
#50 = FACE_BOUND ( 'NONE', #23, .T. ) ;
#51 = DIRECTION ( 'NONE',  ( 0.000000000000000000, 0.000000000000000000, 1.000000000000000000 ) ) ;
#52 = PERSON_AND_ORGANIZATION ( #71, #20 ) ;
#53 = EDGE_LOOP ( 'NONE', ( #208, #245 ) ) ;
#54 = DATE_AND_TIME ( #222, #186 ) ;
#55 = COORDINATED_UNIVERSAL_TIME_OFFSET ( 8, 0, .AHEAD. ) ;
#56 = LOCAL_TIME ( 13, 15, 1.000000000000000000, #220 ) ;
#57 = PRODUCT_DEFINITION ( 'Î´Öª', '', #234, #27 ) ;
#58 = ORIENTED_EDGE ( 'NONE', *, *, #65, .T. ) ;
#59 = CARTESIAN_POINT ( 'NONE',  ( 0.000000000000000000, -0.2999999999999999889, 3.100000000000000089 ) ) ;
#60 = LOCAL_TIME ( 13, 15, 1.000000000000000000, #55 ) ;
#61 = CIRCLE ( 'NONE', #47, 12.50000000000000000 ) ;
#62 = CARTESIAN_POINT ( 'NONE',  ( 0.000000000000000000, -0.2999999999999999889, 0.000000000000000000 ) ) ;
#63 = CARTESIAN_POINT ( 'NONE',  ( 0.000000000000000000, 0.2999999999999999889, 0.000000000000000000 ) ) ;
#64 = ORIENTED_EDGE ( 'NONE', *, *, #49, .T. ) ;
#65 = EDGE_CURVE ( 'NONE', #165, #73, #61, .T. ) ;
#66 = CARTESIAN_POINT ( 'NONE',  ( 0.000000000000000000, -0.2999999999999999889, 0.000000000000000000 ) ) ;
#67 = CIRCLE ( 'NONE', #85, 3.100000000000000089 ) ;
#68 = AXIS2_PLACEMENT_3D ( 'NONE', #63, #102, #17 ) ;
#69 = APPROVAL_STATUS ( 'not_yet_approved' ) ;
#70 = DIRECTION ( 'NONE',  ( -0.000000000000000000, -1.000000000000000000, -0.000000000000000000 ) ) ;
#71 = PERSON ( 'Î´Ö¸¶¨', 'Î´Ö¸¶¨', 'Î´Ö¸¶¨', ('Î´Ö¸¶¨'), ('Î´Ö¸¶¨'), ('Î´Ö¸¶¨') ) ;
#72 = EDGE_CURVE ( 'NONE', #148, #228, #211, .T. ) ;
#73 = VERTEX_POINT ( 'NONE', #150 ) ;
#74 = PERSON_AND_ORGANIZATION_ROLE ( 'creator' ) ;
#75 = ORIENTED_EDGE ( 'NONE', *, *, #115, .F. ) ;
#76 = DATE_TIME_ROLE ( 'classification_date' ) ;
#77 = APPROVAL_STATUS ( 'not_yet_approved' ) ;
#78 = LOCAL_TIME ( 13, 15, 1.000000000000000000, #112 ) ;
#79 = CIRCLE ( 'NONE', #68, 3.100000000000000089 ) ;
#80 = CYLINDRICAL_SURFACE ( 'NONE', #36, 12.50000000000000000 ) ;
#81 = FACE_OUTER_BOUND ( 'NONE', #117, .T. ) ;
#82 = DIRECTION ( 'NONE',  ( 0.000000000000000000, 1.000000000000000000, 0.000000000000000000 ) ) ;
#83 = ORIENTED_EDGE ( 'NONE', *, *, #92, .T. ) ;
#84 = DIRECTION ( 'NONE',  ( 0.000000000000000000, 0.000000000000000000, 1.000000000000000000 ) ) ;
#85 = AXIS2_PLACEMENT_3D ( 'NONE', #160, #180, #51 ) ;
#86 = CYLINDRICAL_SURFACE ( 'NONE', #34, 3.100000000000000089 ) ;
#87 = MECHANICAL_CONTEXT ( 'NONE', #127, 'mechanical' ) ;
#88 = PERSON_AND_ORGANIZATION ( #71, #20 ) ;
#89 = SECURITY_CLASSIFICATION ( '', '', #110 ) ;
#90 = CC_DESIGN_PERSON_AND_ORGANIZATION_ASSIGNMENT ( #52, #33, ( #234 ) ) ;
#91 = DIRECTION ( 'NONE',  ( 0.000000000000000000, 1.000000000000000000, 0.000000000000000000 ) ) ;
#92 = EDGE_CURVE ( 'NONE', #224, #16, #79, .T. ) ;
#93 = PERSON_AND_ORGANIZATION ( #71, #20 ) ;
#94 = APPROVAL_ROLE ( '' ) ;
#95 = ADVANCED_FACE ( 'NONE', ( #191 ), #187, .T. ) ;
#96 = PERSON_AND_ORGANIZATION_ROLE ( 'classification_officer' ) ;
#97 = DIRECTION ( 'NONE',  ( 0.000000000000000000, 0.000000000000000000, -1.000000000000000000 ) ) ;
#98 = DIRECTION ( 'NONE',  ( 0.000000000000000000, 0.000000000000000000, 1.000000000000000000 ) ) ;
#99 = ORIENTED_EDGE ( 'NONE', *, *, #161, .T. ) ;
#100 = CIRCLE ( 'NONE', #223, 12.50000000000000000 ) ;
#101 = VECTOR ( 'NONE', #134, 1000.000000000000000 ) ;
#102 = DIRECTION ( 'NONE',  ( 0.000000000000000000, 1.000000000000000000, 0.000000000000000000 ) ) ;
#103 = CARTESIAN_POINT ( 'NONE',  ( 0.000000000000000000, 0.2999999999999999889, 0.000000000000000000 ) ) ;
#104 = CARTESIAN_POINT ( 'NONE',  ( 0.000000000000000000, 0.2999999999999999889, 3.100000000000000089 ) ) ;
#105 = CARTESIAN_POINT ( 'NONE',  ( 0.000000000000000000, -0.2999999999999999889, 0.000000000000000000 ) ) ;
#106 = DIRECTION ( 'NONE',  ( 0.000000000000000000, 0.000000000000000000, 1.000000000000000000 ) ) ;
#107 = PERSON_AND_ORGANIZATION ( #71, #20 ) ;
#108 = ORIENTED_EDGE ( 'NONE', *, *, #65, .F. ) ;
#109 = CC_DESIGN_APPROVAL ( #225, ( #57 ) ) ;
#110 = SECURITY_CLASSIFICATION_LEVEL ( 'unclassified' ) ;
#111 = AXIS2_PLACEMENT_3D ( 'NONE', #248, #171, #97 ) ;
#112 = COORDINATED_UNIVERSAL_TIME_OFFSET ( 8, 0, .AHEAD. ) ;
#113 = APPROVAL_PERSON_ORGANIZATION ( #145, #156, #13 ) ;
#114 = DIRECTION ( 'NONE',  ( -0.000000000000000000, 1.000000000000000000, -0.000000000000000000 ) ) ;
#115 = EDGE_CURVE ( 'NONE', #228, #224, #119, .T. ) ;
#116 = DIRECTION ( 'NONE',  ( 0.000000000000000000, 1.000000000000000000, 0.000000000000000000 ) ) ;
#117 = EDGE_LOOP ( 'NONE', ( #58, #207 ) ) ;
#118 = ADVANCED_FACE ( 'NONE', ( #246, #81 ), #151, .T. ) ;
#119 = LINE ( 'NONE', #59, #101 ) ;
#120 = CARTESIAN_POINT ( 'NONE',  ( 3.796405077356794918E-16, 0.2999999999999999889, -3.100000000000000089 ) ) ;
#121 = DIRECTION ( 'NONE',  ( 0.000000000000000000, 1.000000000000000000, 0.000000000000000000 ) ) ;
#122 = CARTESIAN_POINT ( 'NONE',  ( 0.000000000000000000, 0.2999999999999999889, 0.000000000000000000 ) ) ;
#123 = PERSON_AND_ORGANIZATION_ROLE ( 'design_owner' ) ;
#124 = UNCERTAINTY_MEASURE_WITH_UNIT (LENGTH_MEASURE( 1.000000000000000082E-05 ), #163, 'distance_accuracy_value', 'NONE');
#125 = DIRECTION ( 'NONE',  ( -0.000000000000000000, -1.000000000000000000, -0.000000000000000000 ) ) ;
#126 = DIRECTION ( 'NONE',  ( 0.000000000000000000, -0.000000000000000000, 1.000000000000000000 ) ) ;
#127 = APPLICATION_CONTEXT ( 'configuration controlled 3d designs of mechanical parts and assemblies' ) ;
#128 = EDGE_LOOP ( 'NONE', ( #189, #45 ) ) ;
#129 = PERSON_AND_ORGANIZATION_ROLE ( 'creator' ) ;
#130 = CALENDAR_DATE ( 2024, 6, 4 ) ;
#131 = CIRCLE ( 'NONE', #21, 12.50000000000000000 ) ;
#132 = APPROVAL ( #221, 'Î´Ö¸¶¨' ) ;
#133 = ORIENTED_EDGE ( 'NONE', *, *, #244, .T. ) ;
#134 = DIRECTION ( 'NONE',  ( -0.000000000000000000, 1.000000000000000000, -0.000000000000000000 ) ) ;
#135 = DIRECTION ( 'NONE',  ( 0.000000000000000000, -0.000000000000000000, 1.000000000000000000 ) ) ;
#136 = EDGE_CURVE ( 'NONE', #200, #19, #131, .T. ) ;
#137 = ORIENTED_EDGE ( 'NONE', *, *, #72, .T. ) ;
#138 = AXIS2_PLACEMENT_3D ( 'NONE', #178, #159, #5 ) ;
#139 = ORIENTED_EDGE ( 'NONE', *, *, #161, .F. ) ;
#140 =( NAMED_UNIT ( * ) SI_UNIT ( $, .STERADIAN. ) SOLID_ANGLE_UNIT ( ) );
#141 = VECTOR ( 'NONE', #70, 1000.000000000000000 ) ;
#142 = APPROVAL_ROLE ( '' ) ;
#143 = EDGE_CURVE ( 'NONE', #73, #200, #155, .T. ) ;
#144 = CARTESIAN_POINT ( 'NONE',  ( 1.530808498934191521E-15, -0.2999999999999999889, 12.50000000000000000 ) ) ;
#145 = PERSON_AND_ORGANIZATION ( #71, #20 ) ;
#146 = ORIENTED_EDGE ( 'NONE', *, *, #115, .T. ) ;
#147 = APPROVAL_DATE_TIME ( #167, #156 ) ;
#148 = VERTEX_POINT ( 'NONE', #238 ) ;
#149 = SHAPE_DEFINITION_REPRESENTATION ( #213, #166 ) ;
#150 = CARTESIAN_POINT ( 'NONE',  ( 1.530808498934191521E-15, 0.2999999999999999889, 12.50000000000000000 ) ) ;
#151 = PLANE ( 'NONE',  #237 ) ;
#152 = ADVANCED_FACE ( 'NONE', ( #233 ), #9, .F. ) ;
#153 = CLOSED_SHELL ( 'NONE', ( #249, #95, #15, #118, #229, #152 ) ) ;
#154 = DIRECTION ( 'NONE',  ( 0.000000000000000000, 0.000000000000000000, 1.000000000000000000 ) ) ;
#155 = LINE ( 'NONE', #230, #162 ) ;
#156 = APPROVAL ( #77, 'Î´Ö¸¶¨' ) ;
#157 = AXIS2_PLACEMENT_3D ( 'NONE', #46, #121, #28 ) ;
#158 = EDGE_LOOP ( 'NONE', ( #168, #35, #146, #83 ) ) ;
#159 = DIRECTION ( 'NONE',  ( 0.000000000000000000, 0.000000000000000000, 1.000000000000000000 ) ) ;
#160 = CARTESIAN_POINT ( 'NONE',  ( 0.000000000000000000, 0.2999999999999999889, 0.000000000000000000 ) ) ;
#161 = EDGE_CURVE ( 'NONE', #165, #19, #197, .T. ) ;
#162 = VECTOR ( 'NONE', #125, 1000.000000000000000 ) ;
#163 =( LENGTH_UNIT ( ) NAMED_UNIT ( * ) SI_UNIT ( .MILLI., .METRE. ) );
#164 = CALENDAR_DATE ( 2024, 6, 4 ) ;
#165 = VERTEX_POINT ( 'NONE', #29 ) ;
#166 = ADVANCED_BREP_SHAPE_REPRESENTATION ( '1.4.2.133-ZGH-25-DK0.6', ( #190, #138 ), #243 ) ;
#167 = DATE_AND_TIME ( #164, #78 ) ;
#168 = ORIENTED_EDGE ( 'NONE', *, *, #18, .F. ) ;
#169 = CALENDAR_DATE ( 2024, 6, 4 ) ;
#170 = ORIENTED_EDGE ( 'NONE', *, *, #18, .T. ) ;
#171 = DIRECTION ( 'NONE',  ( -0.000000000000000000, -1.000000000000000000, -0.000000000000000000 ) ) ;
#172 = CARTESIAN_POINT ( 'NONE',  ( 0.000000000000000000, 0.2999999999999999889, 0.000000000000000000 ) ) ;
#173 = CIRCLE ( 'NONE', #7, 12.50000000000000000 ) ;
#174 = EDGE_LOOP ( 'NONE', ( #212, #170, #32, #75 ) ) ;
#175 = DIRECTION ( 'NONE',  ( 0.000000000000000000, 0.000000000000000000, 1.000000000000000000 ) ) ;
#176 = EDGE_CURVE ( 'NONE', #73, #165, #173, .T. ) ;
#177 = FACE_OUTER_BOUND ( 'NONE', #53, .T. ) ;
#178 = CARTESIAN_POINT ( 'NONE',  ( 0.000000000000000000, 0.000000000000000000, 0.000000000000000000 ) ) ;
#179 = DIRECTION ( 'NONE',  ( -0.000000000000000000, 1.000000000000000000, -0.000000000000000000 ) ) ;
#180 = DIRECTION ( 'NONE',  ( 0.000000000000000000, 1.000000000000000000, 0.000000000000000000 ) ) ;
#181 = DATE_TIME_ROLE ( 'creation_date' ) ;
#182 = ORIENTED_EDGE ( 'NONE', *, *, #136, .T. ) ;
#183 = DATE_AND_TIME ( #130, #219 ) ;
#184 = COORDINATED_UNIVERSAL_TIME_OFFSET ( 8, 0, .AHEAD. ) ;
#185 = CC_DESIGN_PERSON_AND_ORGANIZATION_ASSIGNMENT ( #48, #123, ( #30 ) ) ;
#186 = LOCAL_TIME ( 13, 15, 1.000000000000000000, #184 ) ;
#187 = CYLINDRICAL_SURFACE ( 'NONE', #111, 12.50000000000000000 ) ;
#188 = EDGE_LOOP ( 'NONE', ( #41, #39, #182, #139 ) ) ;
#189 = ORIENTED_EDGE ( 'NONE', *, *, #92, .F. ) ;
#190 = MANIFOLD_SOLID_BREP ( 'ÇÐ³ý-À­Éì3', #153 ) ;
#191 = FACE_OUTER_BOUND ( 'NONE', #188, .T. ) ;
#192 = CARTESIAN_POINT ( 'NONE',  ( 0.000000000000000000, -0.2999999999999999889, 3.100000000000000089 ) ) ;
#193 = CC_DESIGN_APPROVAL ( #132, ( #234 ) ) ;
#194 = VECTOR ( 'NONE', #114, 1000.000000000000000 ) ;
#195 = DIRECTION ( 'NONE',  ( -0.000000000000000000, 1.000000000000000000, -0.000000000000000000 ) ) ;
#196 = DIRECTION ( 'NONE',  ( 0.000000000000000000, 0.000000000000000000, 1.000000000000000000 ) ) ;
#197 = LINE ( 'NONE', #239, #141 ) ;
#198 = COORDINATED_UNIVERSAL_TIME_OFFSET ( 8, 0, .AHEAD. ) ;
#199 = APPLICATION_CONTEXT ( 'configuration controlled 3d designs of mechanical parts and assemblies' ) ;
#200 = VERTEX_POINT ( 'NONE', #144 ) ;
#201 = EDGE_LOOP ( 'NONE', ( #12, #108, #99, #64 ) ) ;
#202 = CC_DESIGN_APPROVAL ( #156, ( #89 ) ) ;
#203 = EDGE_CURVE ( 'NONE', #16, #224, #67, .T. ) ;
#204 = CC_DESIGN_DATE_AND_TIME_ASSIGNMENT ( #183, #76, ( #89 ) ) ;
#205 = DIRECTION ( 'NONE',  ( 0.000000000000000000, 1.000000000000000000, 0.000000000000000000 ) ) ;
#206 = AXIS2_PLACEMENT_3D ( 'NONE', #216, #91, #126 ) ;
#207 = ORIENTED_EDGE ( 'NONE', *, *, #176, .T. ) ;
#208 = ORIENTED_EDGE ( 'NONE', *, *, #49, .F. ) ;
#209 = CARTESIAN_POINT ( 'NONE',  ( 0.000000000000000000, 0.2999999999999999889, 0.000000000000000000 ) ) ;
#210 = CC_DESIGN_DATE_AND_TIME_ASSIGNMENT ( #242, #181, ( #57 ) ) ;
#211 = CIRCLE ( 'NONE', #236, 3.100000000000000089 ) ;
#212 = ORIENTED_EDGE ( 'NONE', *, *, #72, .F. ) ;
#213 = PRODUCT_DEFINITION_SHAPE ( 'NONE', 'NONE',  #57 ) ;
#214 = DIRECTION ( 'NONE',  ( 0.000000000000000000, 0.000000000000000000, 1.000000000000000000 ) ) ;
#215 = APPLICATION_PROTOCOL_DEFINITION ( 'international standard', 'config_control_design', 1994, #127 ) ;
#216 = CARTESIAN_POINT ( 'NONE',  ( 0.000000000000000000, -0.2999999999999999889, 0.000000000000000000 ) ) ;
#217 = PLANE ( 'NONE',  #206 ) ;
#218 = PERSON_AND_ORGANIZATION ( #71, #20 ) ;
#219 = LOCAL_TIME ( 13, 15, 1.000000000000000000, #198 ) ;
#220 = COORDINATED_UNIVERSAL_TIME_OFFSET ( 8, 0, .AHEAD. ) ;
#221 = APPROVAL_STATUS ( 'not_yet_approved' ) ;
#222 = CALENDAR_DATE ( 2024, 6, 4 ) ;
#223 = AXIS2_PLACEMENT_3D ( 'NONE', #62, #231, #84 ) ;
#224 = VERTEX_POINT ( 'NONE', #104 ) ;
#225 = APPROVAL ( #69, 'Î´Ö¸¶¨' ) ;
#226 = FACE_OUTER_BOUND ( 'NONE', #201, .T. ) ;
#227 = CARTESIAN_POINT ( 'NONE',  ( 0.000000000000000000, -0.2999999999999999889, 0.000000000000000000 ) ) ;
#228 = VERTEX_POINT ( 'NONE', #192 ) ;
#229 = ADVANCED_FACE ( 'NONE', ( #50, #177 ), #217, .F. ) ;
#230 = CARTESIAN_POINT ( 'NONE',  ( 1.530808498934191521E-15, 0.2999999999999999889, 12.50000000000000000 ) ) ;
#231 = DIRECTION ( 'NONE',  ( 0.000000000000000000, 1.000000000000000000, 0.000000000000000000 ) ) ;
#232 = CC_DESIGN_PERSON_AND_ORGANIZATION_ASSIGNMENT ( #218, #74, ( #234 ) ) ;
#233 = FACE_OUTER_BOUND ( 'NONE', #158, .T. ) ;
#234 = PRODUCT_DEFINITION_FORMATION_WITH_SPECIFIED_SOURCE ( 'ÈÎºÎ', '', #30, .NOT_KNOWN. ) ;
#235 = FACE_OUTER_BOUND ( 'NONE', #174, .T. ) ;
#236 = AXIS2_PLACEMENT_3D ( 'NONE', #66, #205, #98 ) ;
#237 = AXIS2_PLACEMENT_3D ( 'NONE', #172, #22, #135 ) ;
#238 = CARTESIAN_POINT ( 'NONE',  ( 3.796405077356794918E-16, -0.2999999999999999889, -3.100000000000000089 ) ) ;
#239 = CARTESIAN_POINT ( 'NONE',  ( 0.000000000000000000, 0.2999999999999999889, -12.50000000000000000 ) ) ;
#240 = DATE_AND_TIME ( #169, #56 ) ;
#241 = CALENDAR_DATE ( 2024, 6, 4 ) ;
#242 = DATE_AND_TIME ( #241, #60 ) ;
#243 =( GEOMETRIC_REPRESENTATION_CONTEXT ( 3 ) GLOBAL_UNCERTAINTY_ASSIGNED_CONTEXT ( ( #124 ) ) GLOBAL_UNIT_ASSIGNED_CONTEXT ( ( #163, #26, #140 ) ) REPRESENTATION_CONTEXT ( 'NONE', 'WORKASPACE' ) );
#244 = EDGE_CURVE ( 'NONE', #228, #148, #24, .T. ) ;
#245 = ORIENTED_EDGE ( 'NONE', *, *, #136, .F. ) ;
#246 = FACE_BOUND ( 'NONE', #128, .T. ) ;
#247 = APPROVAL_PERSON_ORGANIZATION ( #88, #225, #142 ) ;
#248 = CARTESIAN_POINT ( 'NONE',  ( 0.000000000000000000, 0.2999999999999999889, 0.000000000000000000 ) ) ;
#249 = ADVANCED_FACE ( 'NONE', ( #235 ), #86, .F. ) ;
ENDSEC;
END-ISO-10303-21;
