ISO-10303-21;
HEADER;
FILE_DESCRIPTION (( 'STEP AP203' ),
    '1' );
FILE_NAME ('524208.STEP',
    '2024-06-12T01:59:26',
    ( 'Windows User' ),
    ( 'P R C' ),
    'SwSTEP 2.0',
    'SolidWorks 2020',
    '' );
FILE_SCHEMA (( 'CONFIG_CONTROL_DESIGN' ));
ENDSEC;

DATA;
#1 = PRODUCT_DEFINITION ( 'Î´Öª', '', #128, #244 ) ;
#2 = DATE_AND_TIME ( #229, #125 ) ;
#3 = ORIENTED_EDGE ( 'NONE', *, *, #91, .T. ) ;
#4 = CC_DESIGN_PERSON_AND_ORGANIZATION_ASSIGNMENT ( #47, #75, ( #128 ) ) ;
#5 = DIRECTION ( 'NONE',  ( -0.000000000000000000, -1.000000000000000000, -0.000000000000000000 ) ) ;
#6 = ADVANCED_FACE ( 'NONE', ( #98, #28 ), #259, .T. ) ;
#7 = CARTESIAN_POINT ( 'NONE',  ( 5.483787781522369726E-16, 38.00000000000000000, -4.382404543304999400 ) ) ;
#8 = DIRECTION ( 'NONE',  ( 0.000000000000000000, 0.000000000000000000, -1.000000000000000000 ) ) ;
#9 = DIRECTION ( 'NONE',  ( 0.000000000000000000, -0.000000000000000000, 1.000000000000000000 ) ) ;
#10 = PRODUCT ( '524208', '524208', '', ( #43 ) ) ;
#11 = CONICAL_SURFACE ( 'NONE', #261, 6.000000000085492502, 0.7853981633406048601 ) ;
#12 = CARTESIAN_POINT ( 'NONE',  ( 9.583974353807436231, 37.86564103399576453, -4.791987176903718115 ) ) ;
#13 = DIRECTION ( 'NONE',  ( 0.000000000000000000, 0.000000000000000000, 1.000000000000000000 ) ) ;
#14 = CIRCLE ( 'NONE', #223, 2.499999999999998224 ) ;
#15 =( NAMED_UNIT ( * ) SI_UNIT ( $, .STERADIAN. ) SOLID_ANGLE_UNIT ( ) );
#16 = CARTESIAN_POINT ( 'NONE',  ( 0.000000000000000000, 1.040949779275260987E-16, 0.000000000000000000 ) ) ;
#17 = ADVANCED_FACE ( 'NONE', ( #118, #23 ), #189, .T. ) ;
#18 = CC_DESIGN_DATE_AND_TIME_ASSIGNMENT ( #2, #140, ( #217 ) ) ;
#19 = CYLINDRICAL_SURFACE ( 'NONE', #245, 1.649999999999998579 ) ;
#20 = CARTESIAN_POINT ( 'NONE',  ( 0.000000000000000000, 27.90000000000000213, 0.000000000000000000 ) ) ;
#21 = APPROVAL_STATUS ( 'not_yet_approved' ) ;
#22 = FACE_OUTER_BOUND ( 'NONE', #70, .T. ) ;
#23 = FACE_OUTER_BOUND ( 'NONE', #226, .T. ) ;
#24 = APPROVAL_PERSON_ORGANIZATION ( #309, #83, #306 ) ;
#25 = APPROVAL_DATE_TIME ( #258, #190 ) ;
#26 = EDGE_LOOP ( 'NONE', ( #236 ) ) ;
#27 = APPROVAL_STATUS ( 'not_yet_approved' ) ;
#28 = FACE_OUTER_BOUND ( 'NONE', #92, .T. ) ;
#29 = ORIENTED_EDGE ( 'NONE', *, *, #153, .F. ) ;
#30 = AXIS2_PLACEMENT_3D ( 'NONE', #293, #5, #171 ) ;
#31 = FACE_OUTER_BOUND ( 'NONE', #44, .T. ) ;
#32 = ADVANCED_FACE ( 'NONE', ( #210, #235 ), #265, .T. ) ;
#33 = CARTESIAN_POINT ( 'NONE',  ( 9.218466664468710547, 38.00000000000000000, -4.609233332234355274 ) ) ;
#34 = DIRECTION ( 'NONE',  ( 0.000000000000000000, 1.000000000000000000, 0.000000000000000000 ) ) ;
#35 = CARTESIAN_POINT ( 'NONE',  ( -9.218466664468710547, 38.00000000000000000, -4.609233332234355274 ) ) ;
#36 = APPROVAL_PERSON_ORGANIZATION ( #253, #37, #282 ) ;
#37 = APPROVAL ( #27, 'Î´Ö¸¶¨' ) ;
#38 = ADVANCED_BREP_SHAPE_REPRESENTATION ( '524208', ( #305, #192 ), #139 ) ;
#39 = CC_DESIGN_SECURITY_CLASSIFICATION ( #217, ( #128 ) ) ;
#40 = ADVANCED_FACE ( 'NONE', ( #230, #22 ), #211, .F. ) ;
#41 = CARTESIAN_POINT ( 'NONE',  ( 0.000000000000000000, 37.64913749651297081, -4.859644532339702394 ) ) ;
#42 = EDGE_LOOP ( 'NONE', ( #3, #53 ) ) ;
#43 = MECHANICAL_CONTEXT ( 'NONE', #270, 'mechanical' ) ;
#44 = EDGE_LOOP ( 'NONE', ( #119 ) ) ;
#45 = CARTESIAN_POINT ( 'NONE',  ( 0.000000000000000000, 11.00000000000000000, -2.499999999999998224 ) ) ;
#46 = PERSON_AND_ORGANIZATION_ROLE ( 'creator' ) ;
#47 = PERSON_AND_ORGANIZATION ( #56, #290 ) ;
#48 = CALENDAR_DATE ( 2024, 12, 6 ) ;
#49 = CARTESIAN_POINT ( 'NONE',  ( -8.764809086609997024, 38.00000000000000000, 4.382404543304999400 ) ) ;
#50 = APPROVAL_STATUS ( 'not_yet_approved' ) ;
#51 = FACE_BOUND ( 'NONE', #254, .T. ) ;
#52 = CC_DESIGN_APPROVAL ( #83, ( #1 ) ) ;
#53 = ORIENTED_EDGE ( 'NONE', *, *, #201, .T. ) ;
#54 = CIRCLE ( 'NONE', #271, 5.500000000040472514 ) ;
#55 = CARTESIAN_POINT ( 'NONE',  ( 0.000000000000000000, 0.5000000001018634066, 0.000000000000000000 ) ) ;
#56 = PERSON ( 'Î´Ö¸¶¨', 'Î´Ö¸¶¨', 'Î´Ö¸¶¨', ('Î´Ö¸¶¨'), ('Î´Ö¸¶¨'), ('Î´Ö¸¶¨') ) ;
#57 = AXIS2_PLACEMENT_3D ( 'NONE', #59, #85, #101 ) ;
#58 = FACE_OUTER_BOUND ( 'NONE', #90, .T. ) ;
#59 = CARTESIAN_POINT ( 'NONE',  ( 0.000000000000000000, 11.00000000002410161, 0.000000000000000000 ) ) ;
#60 = AXIS2_PLACEMENT_3D ( 'NONE', #185, #161, #76 ) ;
#61 = DIRECTION ( 'NONE',  ( -0.000000000000000000, 1.000000000000000000, 0.000000000000000000 ) ) ;
#62 = CARTESIAN_POINT ( 'NONE',  ( 0.000000000000000000, 38.00000000000000000, 4.382404543304999400 ) ) ;
#63 = CC_DESIGN_APPROVAL ( #37, ( #128 ) ) ;
#64 = CARTESIAN_POINT ( 'NONE',  ( 0.000000000000000000, 27.90000000000000213, 1.649999999999998579 ) ) ;
#65 = ORIENTED_EDGE ( 'NONE', *, *, #167, .T. ) ;
#66 = AXIS2_PLACEMENT_3D ( 'NONE', #16, #86, #297 ) ;
#67 = EDGE_LOOP ( 'NONE', ( #208 ) ) ;
#68 = CLOSED_SHELL ( 'NONE', ( #163, #40, #175, #102, #6, #224, #264, #17, #232, #32 ) ) ;
#69 = DIRECTION ( 'NONE',  ( 0.000000000000000000, 1.000000000000000000, 0.000000000000000000 ) ) ;
#70 = EDGE_LOOP ( 'NONE', ( #152 ) ) ;
#71 = SHAPE_DEFINITION_REPRESENTATION ( #268, #38 ) ;
#72 = APPROVAL_DATE_TIME ( #96, #83 ) ;
#73 = CARTESIAN_POINT ( 'NONE',  ( 0.000000000000000000, 25.00000000000000000, 0.000000000000000000 ) ) ;
#74 = APPLICATION_CONTEXT ( 'configuration controlled 3d designs of mechanical parts and assemblies' ) ;
#75 = PERSON_AND_ORGANIZATION_ROLE ( 'design_supplier' ) ;
#76 = DIRECTION ( 'NONE',  ( 0.000000000000000000, 0.000000000000000000, -1.000000000000000000 ) ) ;
#77 = CIRCLE ( 'NONE', #66, 2.499999999999998224 ) ;
#78 = CARTESIAN_POINT ( 'NONE',  ( 0.000000000000000000, 27.89999999989776924, 0.000000000000000000 ) ) ;
#79 = CIRCLE ( 'NONE', #30, 6.000000000000000888 ) ;
#80 = CARTESIAN_POINT ( 'NONE',  ( 8.764809086609998801, 38.00000000000000000, 4.382404543304999400 ) ) ;
#81 = CARTESIAN_POINT ( 'NONE',  ( 9.583974353807436231, 37.86564103399576453, 4.791987176903718115 ) ) ;
#82 = LOCAL_TIME ( 9, 59, 26.00000000000000000, #89 ) ;
#83 = APPROVAL ( #50, 'Î´Ö¸¶¨' ) ;
#84 = DIRECTION ( 'NONE',  ( -0.000000000000000000, -1.000000000000000000, -0.000000000000000000 ) ) ;
#85 = DIRECTION ( 'NONE',  ( 0.000000000000000000, -1.000000000000000000, 0.000000000000000000 ) ) ;
#86 = DIRECTION ( 'NONE',  ( -0.000000000000000000, -1.000000000000000000, -0.000000000000000000 ) ) ;
#87 = DIRECTION ( 'NONE',  ( 0.000000000000000000, 0.000000000000000000, 1.000000000000000000 ) ) ;
#88 = VERTEX_POINT ( 'NONE', #198 ) ;
#89 = COORDINATED_UNIVERSAL_TIME_OFFSET ( 8, 0, .AHEAD. ) ;
#90 = EDGE_LOOP ( 'NONE', ( #65 ) ) ;
#91 = EDGE_CURVE ( 'NONE', #248, #108, #156, .T. ) ;
#92 = EDGE_LOOP ( 'NONE', ( #165 ) ) ;
#93 = AXIS2_PLACEMENT_3D ( 'NONE', #114, #286, #206 ) ;
#94 = CALENDAR_DATE ( 2024, 12, 6 ) ;
#95 = EDGE_LOOP ( 'NONE', ( #29 ) ) ;
#96 = DATE_AND_TIME ( #94, #178 ) ;
#97 = EDGE_LOOP ( 'NONE', ( #222 ) ) ;
#98 = FACE_OUTER_BOUND ( 'NONE', #136, .T. ) ;
#99 = CARTESIAN_POINT ( 'NONE',  ( 5.483787781522369726E-16, 38.00000000000000000, -4.382404543304999400 ) ) ;
#100 = CARTESIAN_POINT ( 'NONE',  ( 8.764809086609997024, 38.00000000000000000, 4.382404543304999400 ) ) ;
#101 = DIRECTION ( 'NONE',  ( 0.000000000000000000, 0.000000000000000000, -1.000000000000000000 ) ) ;
#102 = ADVANCED_FACE ( 'NONE', ( #284, #51 ), #11, .T. ) ;
#103 = CARTESIAN_POINT ( 'NONE',  ( 8.764809086609997024, 38.00000000000000000, -4.382404543304998512 ) ) ;
#104 = LOCAL_TIME ( 9, 59, 26.00000000000000000, #233 ) ;
#105 = CARTESIAN_POINT ( 'NONE',  ( 0.000000000000000000, 37.86564103399577164, 4.791987176903717227 ) ) ;
#106 = CARTESIAN_POINT ( 'NONE',  ( -9.719289064679403012, 37.64913749651297081, -4.859644532339701506 ) ) ;
#107 = CARTESIAN_POINT ( 'NONE',  ( 0.000000000000000000, 0.000000000000000000, 0.000000000000000000 ) ) ;
#108 = VERTEX_POINT ( 'NONE', #99 ) ;
#109 = DIRECTION ( 'NONE',  ( 0.000000000000000000, 1.000000000000000000, 0.000000000000000000 ) ) ;
#110 = CARTESIAN_POINT ( 'NONE',  ( 0.000000000000000000, 0.5000000000000004441, 0.000000000000000000 ) ) ;
#111 = EDGE_LOOP ( 'NONE', ( #142 ) ) ;
#112 = VERTEX_POINT ( 'NONE', #247 ) ;
#113 = PERSON_AND_ORGANIZATION ( #56, #290 ) ;
#114 = CARTESIAN_POINT ( 'NONE',  ( 0.000000000000000000, 0.000000000000000000, 0.000000000000000000 ) ) ;
#115 = CARTESIAN_POINT ( 'NONE',  ( 0.000000000000000000, 38.00000000000000000, 0.000000000000000000 ) ) ;
#116 = ORIENTED_EDGE ( 'NONE', *, *, #201, .F. ) ;
#117 = APPROVAL_ROLE ( '' ) ;
#118 = FACE_BOUND ( 'NONE', #67, .T. ) ;
#119 = ORIENTED_EDGE ( 'NONE', *, *, #255, .T. ) ;
#120 = CARTESIAN_POINT ( 'NONE',  ( 0.000000000000000000, 0.000000000000000000, 0.000000000000000000 ) ) ;
#121 = UNCERTAINTY_MEASURE_WITH_UNIT (LENGTH_MEASURE( 1.000000000000000082E-05 ), #298, 'distance_accuracy_value', 'NONE');
#122 = DIRECTION ( 'NONE',  ( 0.000000000000000000, -1.000000000000000000, 0.000000000000000000 ) ) ;
#123 =( BOUNDED_CURVE ( )  B_SPLINE_CURVE ( 3, ( #7, #103, #100, #62 ),
 .UNSPECIFIED., .F., .T. ) 
 B_SPLINE_CURVE_WITH_KNOTS ( ( 4, 4 ),
 ( 0.000000000000000000, 1.000000000000000000 ),
 .UNSPECIFIED. ) 
 CURVE ( )  GEOMETRIC_REPRESENTATION_ITEM ( )  RATIONAL_B_SPLINE_CURVE ( ( 1.000000000000000000, 0.3333333333333333703, 0.3333333333333333703, 1.000000000000000000 ) ) 
 REPRESENTATION_ITEM ( '' )  );
#124 = CARTESIAN_POINT ( 'NONE',  ( -9.218466664468710547, 38.00000000000000000, 4.609233332234355274 ) ) ;
#125 = LOCAL_TIME ( 9, 59, 26.00000000000000000, #278 ) ;
#126 = CARTESIAN_POINT ( 'NONE',  ( -9.583974353807436231, 37.86564103399576453, 4.791987176903718115 ) ) ;
#127 = CARTESIAN_POINT ( 'NONE',  ( 0.000000000000000000, 38.00000000000000711, 4.609233332234356162 ) ) ;
#128 = PRODUCT_DEFINITION_FORMATION_WITH_SPECIFIED_SOURCE ( 'ÈÎºÎ', '', #10, .NOT_KNOWN. ) ;
#129 = CARTESIAN_POINT ( 'NONE',  ( 0.000000000000000000, 37.64913749651032049, -4.859644532331230948 ) ) ;
#130 = CONICAL_SURFACE ( 'NONE', #57, 2.499999999997726263, 1.029744258685237446 ) ;
#131 = CARTESIAN_POINT ( 'NONE',  ( -9.719289064679403012, 37.64913749651297081, 4.859644532339701506 ) ) ;
#132 = ORIENTED_EDGE ( 'NONE', *, *, #291, .F. ) ;
#133 = PRODUCT_RELATED_PRODUCT_CATEGORY ( 'detail', '', ( #10 ) ) ;
#134 = VERTEX_POINT ( 'NONE', #299 ) ;
#135 = EDGE_LOOP ( 'NONE', ( #155 ) ) ;
#136 = EDGE_LOOP ( 'NONE', ( #164 ) ) ;
#137 = PERSON_AND_ORGANIZATION_ROLE ( 'creator' ) ;
#138 = CARTESIAN_POINT ( 'NONE',  ( 0.000000000000000000, 38.00000000000000000, 4.382404543304999400 ) ) ;
#139 =( GEOMETRIC_REPRESENTATION_CONTEXT ( 3 ) GLOBAL_UNCERTAINTY_ASSIGNED_CONTEXT ( ( #121 ) ) GLOBAL_UNIT_ASSIGNED_CONTEXT ( ( #298, #149, #15 ) ) REPRESENTATION_CONTEXT ( 'NONE', 'WORKASPACE' ) );
#140 = DATE_TIME_ROLE ( 'classification_date' ) ;
#141 = AXIS2_PLACEMENT_3D ( 'NONE', #115, #304, #257 ) ;
#142 = ORIENTED_EDGE ( 'NONE', *, *, #146, .F. ) ;
#143 = CC_DESIGN_DATE_AND_TIME_ASSIGNMENT ( #285, #207, ( #1 ) ) ;
#144 = CARTESIAN_POINT ( 'NONE',  ( -8.764809086609998801, 38.00000000000000000, 4.382404543304999400 ) ) ;
#145 = CARTESIAN_POINT ( 'NONE',  ( 0.000000000000000000, 0.000000000000000000, 0.000000000000000000 ) ) ;
#146 = EDGE_CURVE ( 'NONE', #88, #88, #252, .T. ) ;
#147 = CARTESIAN_POINT ( 'NONE',  ( -9.583974353807436231, 37.86564103399576453, -4.791987176903718115 ) ) ;
#148 = DIRECTION ( 'NONE',  ( 0.000000000000000000, 0.000000000000000000, -1.000000000000000000 ) ) ;
#149 =( NAMED_UNIT ( * ) PLANE_ANGLE_UNIT ( ) SI_UNIT ( $, .RADIAN. ) );
#150 = CIRCLE ( 'NONE', #234, 6.000000000000000888 ) ;
#151 = CARTESIAN_POINT ( 'NONE',  ( 0.000000000000000000, 0.000000000000000000, 5.500000000040472514 ) ) ;
#152 = ORIENTED_EDGE ( 'NONE', *, *, #280, .T. ) ;
#153 = EDGE_CURVE ( 'NONE', #249, #249, #79, .T. ) ;
#154 = EDGE_CURVE ( 'NONE', #269, #269, #197, .T. ) ;
#155 = ORIENTED_EDGE ( 'NONE', *, *, #255, .F. ) ;
#156 =( BOUNDED_CURVE ( )  B_SPLINE_CURVE ( 3, ( #138, #49, #162, #307 ),
 .UNSPECIFIED., .F., .F. ) 
 B_SPLINE_CURVE_WITH_KNOTS ( ( 4, 4 ),
 ( 0.000000000000000000, 1.000000000000000000 ),
 .UNSPECIFIED. ) 
 CURVE ( )  GEOMETRIC_REPRESENTATION_ITEM ( )  RATIONAL_B_SPLINE_CURVE ( ( 1.000000000000000000, 0.3333333333333333703, 0.3333333333333333703, 1.000000000000000000 ) ) 
 REPRESENTATION_ITEM ( '' )  );
#157 = CARTESIAN_POINT ( 'NONE',  ( 0.000000000000000000, 37.64913749651297081, 4.859644532339702394 ) ) ;
#158 = PERSON_AND_ORGANIZATION ( #56, #290 ) ;
#159 = ORIENTED_EDGE ( 'NONE', *, *, #91, .F. ) ;
#160 = SECURITY_CLASSIFICATION_LEVEL ( 'unclassified' ) ;
#161 = DIRECTION ( 'NONE',  ( 0.000000000000000000, -1.000000000000000000, 0.000000000000000000 ) ) ;
#162 = CARTESIAN_POINT ( 'NONE',  ( -8.764809086609997024, 38.00000000000000000, -4.382404543305000288 ) ) ;
#163 = ADVANCED_FACE ( 'NONE', ( #58 ), #130, .F. ) ;
#164 = ORIENTED_EDGE ( 'NONE', *, *, #291, .T. ) ;
#165 = ORIENTED_EDGE ( 'NONE', *, *, #153, .T. ) ;
#166 = FACE_OUTER_BOUND ( 'NONE', #42, .T. ) ;
#167 = EDGE_CURVE ( 'NONE', #202, #202, #14, .T. ) ;
#168 = LOCAL_TIME ( 9, 59, 26.00000000000000000, #283 ) ;
#169 = CARTESIAN_POINT ( 'NONE',  ( 8.764809086609998801, 38.00000000000000000, -4.382404543304999400 ) ) ;
#170 = FACE_BOUND ( 'NONE', #250, .T. ) ;
#171 = DIRECTION ( 'NONE',  ( 0.000000000000000000, 0.000000000000000000, -1.000000000000000000 ) ) ;
#172 = FACE_OUTER_BOUND ( 'NONE', #26, .T. ) ;
#173 = DIRECTION ( 'NONE',  ( 1.000000000000000000, 0.000000000000000000, 0.000000000000000000 ) ) ;
#174 = ORIENTED_EDGE ( 'NONE', *, *, #209, .T. ) ;
#175 = ADVANCED_FACE ( 'NONE', ( #170, #294 ), #267, .F. ) ;
#176 = APPROVAL_PERSON_ORGANIZATION ( #212, #190, #117 ) ;
#177 = CARTESIAN_POINT ( 'NONE',  ( 0.000000000000000000, 33.99999999999997868, -6.000000000000000888 ) ) ;
#178 = LOCAL_TIME ( 9, 59, 26.00000000000000000, #188 ) ;
#179 = AXIS2_PLACEMENT_3D ( 'NONE', #73, #281, #287 ) ;
#180 = CONICAL_SURFACE ( 'NONE', #260, 1.649999999870033207, 1.029744258665856727 ) ;
#181 = ORIENTED_EDGE ( 'NONE', *, *, #167, .F. ) ;
#182 = APPROVAL_DATE_TIME ( #256, #37 ) ;
#183 = EDGE_LOOP ( 'NONE', ( #213 ) ) ;
#184 = PERSON_AND_ORGANIZATION ( #56, #290 ) ;
#185 = CARTESIAN_POINT ( 'NONE',  ( 0.000000000000000000, 34.00000000007185008, 0.000000000000000000 ) ) ;
#186 = APPLICATION_PROTOCOL_DEFINITION ( 'international standard', 'config_control_design', 1994, #74 ) ;
#187 = CC_DESIGN_PERSON_AND_ORGANIZATION_ASSIGNMENT ( #272, #205, ( #10 ) ) ;
#188 = COORDINATED_UNIVERSAL_TIME_OFFSET ( 8, 0, .AHEAD. ) ;
#189 = PLANE ( 'NONE',  #141 ) ;
#190 = APPROVAL ( #21, 'Î´Ö¸¶¨' ) ;
#191 = CARTESIAN_POINT ( 'NONE',  ( 0.000000000000000000, 11.00000000000000000, 0.000000000000000000 ) ) ;
#192 = AXIS2_PLACEMENT_3D ( 'NONE', #107, #87, #173 ) ;
#193 = CARTESIAN_POINT ( 'NONE',  ( 0.000000000000000000, 38.00000000000000711, -4.609233332234356162 ) ) ;
#194 = DIRECTION ( 'NONE',  ( 0.000000000000000000, 0.000000000000000000, 1.000000000000000000 ) ) ;
#195 = CC_DESIGN_PERSON_AND_ORGANIZATION_ASSIGNMENT ( #184, #46, ( #1 ) ) ;
#196 = DIRECTION ( 'NONE',  ( 0.000000000000000000, 0.000000000000000000, 1.000000000000000000 ) ) ;
#197 = CIRCLE ( 'NONE', #238, 4.859644532331230948 ) ;
#198 = CARTESIAN_POINT ( 'NONE',  ( 0.000000000000000000, 38.00000000000000000, 1.649999999999998579 ) ) ;
#199 = EDGE_LOOP ( 'NONE', ( #132 ) ) ;
#200 = CARTESIAN_POINT ( 'NONE',  ( 9.719289064679403012, 37.64913749651297081, -4.859644532339701506 ) ) ;
#201 = EDGE_CURVE ( 'NONE', #108, #248, #123, .T. ) ;
#202 = VERTEX_POINT ( 'NONE', #45 ) ;
#203 = FACE_OUTER_BOUND ( 'NONE', #111, .T. ) ;
#204 = VERTEX_POINT ( 'NONE', #64 ) ;
#205 = PERSON_AND_ORGANIZATION_ROLE ( 'design_owner' ) ;
#206 = DIRECTION ( 'NONE',  ( 0.000000000000000000, 0.000000000000000000, -1.000000000000000000 ) ) ;
#207 = DATE_TIME_ROLE ( 'creation_date' ) ;
#208 = ORIENTED_EDGE ( 'NONE', *, *, #146, .T. ) ;
#209 = EDGE_CURVE ( 'NONE', #251, #251, #54, .T. ) ;
#210 = FACE_OUTER_BOUND ( 'NONE', #95, .T. ) ;
#211 = CYLINDRICAL_SURFACE ( 'NONE', #93, 2.499999999999998224 ) ;
#212 = PERSON_AND_ORGANIZATION ( #56, #290 ) ;
#213 = ORIENTED_EDGE ( 'NONE', *, *, #209, .F. ) ;
#214 = DIRECTION ( 'NONE',  ( -0.000000000000000000, -1.000000000000000000, -0.000000000000000000 ) ) ;
#215 = CARTESIAN_POINT ( 'NONE',  ( 0.000000000000000000, 37.64913749651032049, 0.000000000000000000 ) ) ;
#216 = CARTESIAN_POINT ( 'NONE',  ( -8.764809086609998801, 38.00000000000000000, -4.382404543304999400 ) ) ;
#217 = SECURITY_CLASSIFICATION ( '', '', #160 ) ;
#218 = DIRECTION ( 'NONE',  ( 0.000000000000000000, 0.000000000000000000, 1.000000000000000000 ) ) ;
#219 = DIRECTION ( 'NONE',  ( 0.000000000000000000, 1.000000000000000000, 0.000000000000000000 ) ) ;
#220 = AXIS2_PLACEMENT_3D ( 'NONE', #20, #69, #13 ) ;
#221 = CARTESIAN_POINT ( 'NONE',  ( 0.000000000000000000, 38.00000000000000000, 0.000000000000000000 ) ) ;
#222 = ORIENTED_EDGE ( 'NONE', *, *, #154, .T. ) ;
#223 = AXIS2_PLACEMENT_3D ( 'NONE', #191, #84, #148 ) ;
#224 = ADVANCED_FACE ( 'NONE', ( #31 ), #180, .F. ) ;
#225 = CARTESIAN_POINT ( 'NONE',  ( 9.719289064679403012, 37.64913749651297081, 4.859644532339701506 ) ) ;
#226 = EDGE_LOOP ( 'NONE', ( #116, #159 ) ) ;
#227 = CARTESIAN_POINT ( 'NONE',  ( 0.000000000000000000, 38.00000000000000000, 4.382404543304999400 ) ) ;
#228 = DIRECTION ( 'NONE',  ( 0.000000000000000000, 0.000000000000000000, -1.000000000000000000 ) ) ;
#229 = CALENDAR_DATE ( 2024, 12, 6 ) ;
#230 = FACE_OUTER_BOUND ( 'NONE', #237, .T. ) ;
#231 = PERSON_AND_ORGANIZATION_ROLE ( 'classification_officer' ) ;
#232 = ADVANCED_FACE ( 'NONE', ( #166, #172 ), #308, .T. ) ;
#233 = COORDINATED_UNIVERSAL_TIME_OFFSET ( 8, 0, .AHEAD. ) ;
#234 = AXIS2_PLACEMENT_3D ( 'NONE', #110, #109, #228 ) ;
#235 = FACE_BOUND ( 'NONE', #97, .T. ) ;
#236 = ORIENTED_EDGE ( 'NONE', *, *, #154, .F. ) ;
#237 = EDGE_LOOP ( 'NONE', ( #181 ) ) ;
#238 = AXIS2_PLACEMENT_3D ( 'NONE', #215, #122, #8 ) ;
#239 = CARTESIAN_POINT ( 'NONE',  ( 0.000000000000000000, 38.00000000000000000, 4.382404543304999400 ) ) ;
#240 = CARTESIAN_POINT ( 'NONE',  ( 9.218466664468710547, 38.00000000000000000, 4.609233332234355274 ) ) ;
#241 = DIRECTION ( 'NONE',  ( 0.000000000000000000, 1.000000000000000000, 0.000000000000000000 ) ) ;
#242 = CC_DESIGN_PERSON_AND_ORGANIZATION_ASSIGNMENT ( #158, #137, ( #128 ) ) ;
#243 = CARTESIAN_POINT ( 'NONE',  ( 0.000000000000000000, 38.00000000000000000, 4.382404543304999400 ) ) ;
#244 = DESIGN_CONTEXT ( 'detailed design', #74, 'design' ) ;
#245 = AXIS2_PLACEMENT_3D ( 'NONE', #221, #296, #275 ) ;
#246 = APPLICATION_PROTOCOL_DEFINITION ( 'international standard', 'config_control_design', 1994, #270 ) ;
#247 = CARTESIAN_POINT ( 'NONE',  ( 0.000000000000000000, 1.040949779275260987E-16, -2.499999999999998224 ) ) ;
#248 = VERTEX_POINT ( 'NONE', #227 ) ;
#249 = VERTEX_POINT ( 'NONE', #177 ) ;
#250 = EDGE_LOOP ( 'NONE', ( #273 ) ) ;
#251 = VERTEX_POINT ( 'NONE', #151 ) ;
#252 = CIRCLE ( 'NONE', #295, 1.649999999999998579 ) ;
#253 = PERSON_AND_ORGANIZATION ( #56, #290 ) ;
#254 = EDGE_LOOP ( 'NONE', ( #174 ) ) ;
#255 = EDGE_CURVE ( 'NONE', #204, #204, #277, .T. ) ;
#256 = DATE_AND_TIME ( #48, #82 ) ;
#257 = DIRECTION ( 'NONE',  ( 0.000000000000000000, -0.000000000000000000, 1.000000000000000000 ) ) ;
#258 = DATE_AND_TIME ( #279, #168 ) ;
#259 = CYLINDRICAL_SURFACE ( 'NONE', #179, 6.000000000000000888 ) ;
#260 = AXIS2_PLACEMENT_3D ( 'NONE', #78, #61, #194 ) ;
#261 = AXIS2_PLACEMENT_3D ( 'NONE', #55, #241, #218 ) ;
#262 = CARTESIAN_POINT ( 'NONE',  ( 0.000000000000000000, 38.00000000000000711, 4.609233332234356162 ) ) ;
#263 = CARTESIAN_POINT ( 'NONE',  ( 0.000000000000000000, 38.00000000000000000, -4.382404543304999400 ) ) ;
#264 = ADVANCED_FACE ( 'NONE', ( #203, #276 ), #19, .F. ) ;
#265 = CONICAL_SURFACE ( 'NONE', #60, 5.999999999971805664, 0.3028848683740845149 ) ;
#266 = CARTESIAN_POINT ( 'NONE',  ( 0.000000000000000000, 37.86564103399577164, -4.791987176903717227 ) ) ;
#267 = PLANE ( 'NONE',  #302 ) ;
#268 = PRODUCT_DEFINITION_SHAPE ( 'NONE', 'NONE',  #1 ) ;
#269 = VERTEX_POINT ( 'NONE', #129 ) ;
#270 = APPLICATION_CONTEXT ( 'configuration controlled 3d designs of mechanical parts and assemblies' ) ;
#271 = AXIS2_PLACEMENT_3D ( 'NONE', #120, #219, #288 ) ;
#272 = PERSON_AND_ORGANIZATION ( #56, #290 ) ;
#273 = ORIENTED_EDGE ( 'NONE', *, *, #280, .F. ) ;
#274 = CC_DESIGN_APPROVAL ( #190, ( #217 ) ) ;
#275 = DIRECTION ( 'NONE',  ( 0.000000000000000000, 0.000000000000000000, 1.000000000000000000 ) ) ;
#276 = FACE_OUTER_BOUND ( 'NONE', #135, .T. ) ;
#277 = CIRCLE ( 'NONE', #220, 1.649999999999998579 ) ;
#278 = COORDINATED_UNIVERSAL_TIME_OFFSET ( 8, 0, .AHEAD. ) ;
#279 = CALENDAR_DATE ( 2024, 12, 6 ) ;
#280 = EDGE_CURVE ( 'NONE', #112, #112, #77, .T. ) ;
#281 = DIRECTION ( 'NONE',  ( -0.000000000000000000, -1.000000000000000000, -0.000000000000000000 ) ) ;
#282 = APPROVAL_ROLE ( '' ) ;
#283 = COORDINATED_UNIVERSAL_TIME_OFFSET ( 8, 0, .AHEAD. ) ;
#284 = FACE_OUTER_BOUND ( 'NONE', #199, .T. ) ;
#285 = DATE_AND_TIME ( #303, #104 ) ;
#286 = DIRECTION ( 'NONE',  ( -0.000000000000000000, -1.000000000000000000, -0.000000000000000000 ) ) ;
#287 = DIRECTION ( 'NONE',  ( 0.000000000000000000, 0.000000000000000000, -1.000000000000000000 ) ) ;
#288 = DIRECTION ( 'NONE',  ( 0.000000000000000000, 0.000000000000000000, 1.000000000000000000 ) ) ;
#289 = CARTESIAN_POINT ( 'NONE',  ( 0.000000000000000000, 38.00000000000000000, 0.000000000000000000 ) ) ;
#290 = ORGANIZATION ( 'Î´Ö¸¶¨', 'Î´Ö¸¶¨', '' ) ;
#291 = EDGE_CURVE ( 'NONE', #134, #134, #150, .T. ) ;
#292 = CARTESIAN_POINT ( 'NONE',  ( 0.000000000000000000, 37.86564103399577164, 4.791987176903717227 ) ) ;
#293 = CARTESIAN_POINT ( 'NONE',  ( 0.000000000000000000, 33.99999999999997868, 0.000000000000000000 ) ) ;
#294 = FACE_OUTER_BOUND ( 'NONE', #183, .T. ) ;
#295 = AXIS2_PLACEMENT_3D ( 'NONE', #289, #214, #196 ) ;
#296 = DIRECTION ( 'NONE',  ( 0.000000000000000000, 1.000000000000000000, 0.000000000000000000 ) ) ;
#297 = DIRECTION ( 'NONE',  ( 0.000000000000000000, 0.000000000000000000, -1.000000000000000000 ) ) ;
#298 =( LENGTH_UNIT ( ) NAMED_UNIT ( * ) SI_UNIT ( .MILLI., .METRE. ) );
#299 = CARTESIAN_POINT ( 'NONE',  ( 0.000000000000000000, 0.5000000000000004441, -6.000000000000000888 ) ) ;
#300 = CC_DESIGN_PERSON_AND_ORGANIZATION_ASSIGNMENT ( #113, #231, ( #217 ) ) ;
#301 = CARTESIAN_POINT ( 'NONE',  ( 0.000000000000000000, 37.64913749651297081, 4.859644532339702394 ) ) ;
#302 = AXIS2_PLACEMENT_3D ( 'NONE', #145, #34, #9 ) ;
#303 = CALENDAR_DATE ( 2024, 12, 6 ) ;
#304 = DIRECTION ( 'NONE',  ( 0.000000000000000000, 1.000000000000000000, 0.000000000000000000 ) ) ;
#305 = MANIFOLD_SOLID_BREP ( '×éºÏ1', #68 ) ;
#306 = APPROVAL_ROLE ( '' ) ;
#307 = CARTESIAN_POINT ( 'NONE',  ( 5.483787781522369726E-16, 38.00000000000000000, -4.382404543304999400 ) ) ;
#308 =( BOUNDED_SURFACE ( )  B_SPLINE_SURFACE ( 3, 3, ( 
 ( #243, #80, #169, #263, #216, #144, #239 ),
 ( #262, #240, #33, #193, #35, #124, #127 ),
 ( #292, #81, #12, #266, #147, #126, #105 ),
 ( #301, #225, #200, #41, #106, #131, #157 ) ),
 .UNSPECIFIED., .F., .T., .F. ) 
 B_SPLINE_SURFACE_WITH_KNOTS ( ( 4, 4 ),
 ( 4, 3, 4 ),
 ( 0.000000000000000000, 1.000000000000000000 ),
 ( 0.000000000000000000, 0.5000000000000000000, 1.000000000000000000 ),
 .UNSPECIFIED. ) 
 GEOMETRIC_REPRESENTATION_ITEM ( )  RATIONAL_B_SPLINE_SURFACE ( (
 ( 1.000000000000000000, 0.3333333333333333148, 0.3333333333333333148, 1.000000000000000000, 0.3333333333333333148, 0.3333333333333333148, 1.000000000000000000),
 ( 0.8704604635415963410, 0.2901534878471987433, 0.2901534878471987433, 0.8704604635415963410, 0.2901534878471987433, 0.2901534878471987433, 0.8704604635415963410),
 ( 0.8704604635415963410, 0.2901534878471987433, 0.2901534878471987433, 0.8704604635415963410, 0.2901534878471987433, 0.2901534878471987433, 0.8704604635415963410),
 ( 1.000000000000000000, 0.3333333333333333148, 0.3333333333333333148, 1.000000000000000000, 0.3333333333333333148, 0.3333333333333333148, 1.000000000000000000) ) ) 
 REPRESENTATION_ITEM ( '' )  SURFACE ( )  );
#309 = PERSON_AND_ORGANIZATION ( #56, #290 ) ;
ENDSEC;
END-ISO-10303-21;
