ISO-10303-21;
HEADER;
FILE_DESCRIPTION (( 'STEP AP203' ),
    '1' );
FILE_NAME ('524214.STEP',
    '2024-06-12T02:06:34',
    ( 'Windows User' ),
    ( 'P R C' ),
    'SwSTEP 2.0',
    'SolidWorks 2020',
    '' );
FILE_SCHEMA (( 'CONFIG_CONTROL_DESIGN' ));
ENDSEC;

DATA;
#1 = CYLINDRICAL_SURFACE ( 'NONE', #56, 1.649999999999998579 ) ;
#2 = CARTESIAN_POINT ( 'NONE',  ( -8.764809086609997024, 200.0000000000000000, -4.382404543305000288 ) ) ;
#3 = EDGE_CURVE ( 'NONE', #129, #129, #20, .T. ) ;
#4 =( NAMED_UNIT ( * ) SI_UNIT ( $, .STERADIAN. ) SOLID_ANGLE_UNIT ( ) );
#5 = CARTESIAN_POINT ( 'NONE',  ( 0.000000000000000000, 1.040949779275260987E-16, 0.000000000000000000 ) ) ;
#6 = LOCAL_TIME ( 10, 6, 34.00000000000000000, #276 ) ;
#7 = MANIFOLD_SOLID_BREP ( '×éºÏ1', #34 ) ;
#8 = CARTESIAN_POINT ( 'NONE',  ( 0.000000000000000000, 199.6491374965129353, -4.859644532339705059 ) ) ;
#9 = CARTESIAN_POINT ( 'NONE',  ( 8.764809086609998801, 199.9999999999999716, -4.382404543304999400 ) ) ;
#10 = CARTESIAN_POINT ( 'NONE',  ( 0.000000000000000000, 0.000000000000000000, 5.500000000040472514 ) ) ;
#11 = ORIENTED_EDGE ( 'NONE', *, *, #85, .F. ) ;
#12 = CALENDAR_DATE ( 2024, 12, 6 ) ;
#13 = APPROVAL_STATUS ( 'not_yet_approved' ) ;
#14 = CARTESIAN_POINT ( 'NONE',  ( 0.000000000000000000, 189.8999999999999773, 0.000000000000000000 ) ) ;
#15 = DIRECTION ( 'NONE',  ( 0.000000000000000000, 0.000000000000000000, 1.000000000000000000 ) ) ;
#16 = EDGE_LOOP ( 'NONE', ( #67 ) ) ;
#17 = AXIS2_PLACEMENT_3D ( 'NONE', #14, #69, #57 ) ;
#18 = CYLINDRICAL_SURFACE ( 'NONE', #165, 2.499999999999998224 ) ;
#19 = LOCAL_TIME ( 10, 6, 34.00000000000000000, #140 ) ;
#20 = CIRCLE ( 'NONE', #120, 2.499999999999998224 ) ;
#21 = FACE_OUTER_BOUND ( 'NONE', #163, .T. ) ;
#22 = APPROVAL ( #13, 'Î´Ö¸¶¨' ) ;
#23 = DIRECTION ( 'NONE',  ( 0.000000000000000000, 0.000000000000000000, 1.000000000000000000 ) ) ;
#24 = CIRCLE ( 'NONE', #203, 5.500000000040472514 ) ;
#25 = CARTESIAN_POINT ( 'NONE',  ( 0.000000000000000000, 11.00000000002410161, 0.000000000000000000 ) ) ;
#26 = CARTESIAN_POINT ( 'NONE',  ( 8.764809086609997024, 200.0000000000000000, -4.382404543304998512 ) ) ;
#27 = EDGE_CURVE ( 'NONE', #55, #55, #266, .T. ) ;
#28 = CARTESIAN_POINT ( 'NONE',  ( -8.764809086609998801, 199.9999999999999716, 4.382404543304999400 ) ) ;
#29 = CARTESIAN_POINT ( 'NONE',  ( -9.583974353807441560, 199.8656410339957574, 4.791987176903720780 ) ) ;
#30 = PRODUCT_DEFINITION_SHAPE ( 'NONE', 'NONE',  #303 ) ;
#31 = CARTESIAN_POINT ( 'NONE',  ( 0.000000000000000000, 199.9999999999999716, -4.609233332234357938 ) ) ;
#32 = CARTESIAN_POINT ( 'NONE',  ( -9.218466664468715877, 199.9999999999999432, -4.609233332234357938 ) ) ;
#33 = APPROVAL_DATE_TIME ( #39, #194 ) ;
#34 = CLOSED_SHELL ( 'NONE', ( #176, #144, #106, #152, #219, #48, #226, #244, #284, #258 ) ) ;
#35 = PRODUCT_RELATED_PRODUCT_CATEGORY ( 'detail', '', ( #223 ) ) ;
#36 = EDGE_LOOP ( 'NONE', ( #230 ) ) ;
#37 = APPROVAL_ROLE ( '' ) ;
#38 = EDGE_LOOP ( 'NONE', ( #182 ) ) ;
#39 = DATE_AND_TIME ( #12, #208 ) ;
#40 =( GEOMETRIC_REPRESENTATION_CONTEXT ( 3 ) GLOBAL_UNCERTAINTY_ASSIGNED_CONTEXT ( ( #248 ) ) GLOBAL_UNIT_ASSIGNED_CONTEXT ( ( #250, #50, #4 ) ) REPRESENTATION_CONTEXT ( 'NONE', 'WORKASPACE' ) );
#41 = DIRECTION ( 'NONE',  ( 0.000000000000000000, 0.000000000000000000, -1.000000000000000000 ) ) ;
#42 = EDGE_LOOP ( 'NONE', ( #111 ) ) ;
#43 = DATE_AND_TIME ( #169, #6 ) ;
#44 = DIRECTION ( 'NONE',  ( 0.000000000000000000, 0.000000000000000000, -1.000000000000000000 ) ) ;
#45 = CARTESIAN_POINT ( 'NONE',  ( -8.764809086609997024, 200.0000000000000000, 4.382404543304999400 ) ) ;
#46 = DIRECTION ( 'NONE',  ( 0.000000000000000000, -0.000000000000000000, 1.000000000000000000 ) ) ;
#47 = FACE_BOUND ( 'NONE', #190, .T. ) ;
#48 = ADVANCED_FACE ( 'NONE', ( #142 ), #264, .F. ) ;
#49 = PLANE ( 'NONE',  #74 ) ;
#50 =( NAMED_UNIT ( * ) PLANE_ANGLE_UNIT ( ) SI_UNIT ( $, .RADIAN. ) );
#51 = FACE_OUTER_BOUND ( 'NONE', #91, .T. ) ;
#52 = AXIS2_PLACEMENT_3D ( 'NONE', #290, #124, #23 ) ;
#53 = CARTESIAN_POINT ( 'NONE',  ( 0.000000000000000000, 196.0000000000718501, 0.000000000000000000 ) ) ;
#54 = APPROVAL_PERSON_ORGANIZATION ( #133, #194, #188 ) ;
#55 = VERTEX_POINT ( 'NONE', #180 ) ;
#56 = AXIS2_PLACEMENT_3D ( 'NONE', #75, #146, #215 ) ;
#57 = DIRECTION ( 'NONE',  ( 0.000000000000000000, 0.000000000000000000, 1.000000000000000000 ) ) ;
#58 = EDGE_CURVE ( 'NONE', #131, #131, #77, .T. ) ;
#59 = PERSON_AND_ORGANIZATION ( #97, #217 ) ;
#60 = EDGE_LOOP ( 'NONE', ( #132 ) ) ;
#61 = DIRECTION ( 'NONE',  ( 1.000000000000000000, 0.000000000000000000, 0.000000000000000000 ) ) ;
#62 = APPROVAL_DATE_TIME ( #145, #22 ) ;
#63 = LOCAL_TIME ( 10, 6, 34.00000000000000000, #207 ) ;
#64 = ORIENTED_EDGE ( 'NONE', *, *, #249, .F. ) ;
#65 = DATE_TIME_ROLE ( 'creation_date' ) ;
#66 = PERSON_AND_ORGANIZATION_ROLE ( 'creator' ) ;
#67 = ORIENTED_EDGE ( 'NONE', *, *, #168, .T. ) ;
#68 = AXIS2_PLACEMENT_3D ( 'NONE', #286, #262, #100 ) ;
#69 = DIRECTION ( 'NONE',  ( 0.000000000000000000, 1.000000000000000000, 0.000000000000000000 ) ) ;
#70 = FACE_OUTER_BOUND ( 'NONE', #252, .T. ) ;
#71 = CC_DESIGN_DATE_AND_TIME_ASSIGNMENT ( #300, #65, ( #303 ) ) ;
#72 = CARTESIAN_POINT ( 'NONE',  ( 8.764809086609997024, 200.0000000000000000, 4.382404543304999400 ) ) ;
#73 = CARTESIAN_POINT ( 'NONE',  ( 0.000000000000000000, 199.9999999999999716, 4.382404543304999400 ) ) ;
#74 = AXIS2_PLACEMENT_3D ( 'NONE', #238, #151, #46 ) ;
#75 = CARTESIAN_POINT ( 'NONE',  ( 0.000000000000000000, 199.9999999999999716, 0.000000000000000000 ) ) ;
#76 = APPLICATION_CONTEXT ( 'configuration controlled 3d designs of mechanical parts and assemblies' ) ;
#77 = CIRCLE ( 'NONE', #17, 1.649999999999998579 ) ;
#78 = CARTESIAN_POINT ( 'NONE',  ( 8.764809086609998801, 199.9999999999999716, 4.382404543304999400 ) ) ;
#79 = CARTESIAN_POINT ( 'NONE',  ( -9.583974353807441560, 199.8656410339957574, -4.791987176903720780 ) ) ;
#80 = CARTESIAN_POINT ( 'NONE',  ( 0.000000000000000000, 199.6491374965129353, 4.859644532339705059 ) ) ;
#81 = APPLICATION_CONTEXT ( 'configuration controlled 3d designs of mechanical parts and assemblies' ) ;
#82 =( BOUNDED_CURVE ( )  B_SPLINE_CURVE ( 3, ( #73, #45, #2, #147 ),
 .UNSPECIFIED., .F., .F. ) 
 B_SPLINE_CURVE_WITH_KNOTS ( ( 4, 4 ),
 ( 0.000000000000000000, 1.000000000000000000 ),
 .UNSPECIFIED. ) 
 CURVE ( )  GEOMETRIC_REPRESENTATION_ITEM ( )  RATIONAL_B_SPLINE_CURVE ( ( 1.000000000000000000, 0.3333333333333333703, 0.3333333333333333703, 1.000000000000000000 ) ) 
 REPRESENTATION_ITEM ( '' )  );
#83 = AXIS2_PLACEMENT_3D ( 'NONE', #137, #302, #61 ) ;
#84 = CARTESIAN_POINT ( 'NONE',  ( 0.000000000000000000, 199.9999999999999716, 4.382404543304999400 ) ) ;
#85 = EDGE_CURVE ( 'NONE', #204, #204, #24, .T. ) ;
#86 = CARTESIAN_POINT ( 'NONE',  ( 0.000000000000000000, 11.00000000000000000, 0.000000000000000000 ) ) ;
#87 = APPROVAL_STATUS ( 'not_yet_approved' ) ;
#88 = ORIENTED_EDGE ( 'NONE', *, *, #117, .T. ) ;
#89 = CALENDAR_DATE ( 2024, 12, 6 ) ;
#90 = MECHANICAL_CONTEXT ( 'NONE', #81, 'mechanical' ) ;
#91 = EDGE_LOOP ( 'NONE', ( #306, #88 ) ) ;
#92 = PERSON_AND_ORGANIZATION_ROLE ( 'classification_officer' ) ;
#93 =( BOUNDED_SURFACE ( )  B_SPLINE_SURFACE ( 3, 3, ( 
 ( #103, #78, #9, #224, #127, #28, #84 ),
 ( #243, #295, #154, #31, #32, #201, #178 ),
 ( #128, #126, #153, #271, #79, #29, #225 ),
 ( #80, #268, #177, #8, #246, #265, #222 ) ),
 .UNSPECIFIED., .F., .T., .F. ) 
 B_SPLINE_SURFACE_WITH_KNOTS ( ( 4, 4 ),
 ( 4, 3, 4 ),
 ( 0.000000000000000000, 1.000000000000000000 ),
 ( 0.000000000000000000, 0.5000000000000000000, 1.000000000000000000 ),
 .UNSPECIFIED. ) 
 GEOMETRIC_REPRESENTATION_ITEM ( )  RATIONAL_B_SPLINE_SURFACE ( (
 ( 1.000000000000000000, 0.3333333333333333148, 0.3333333333333333148, 1.000000000000000000, 0.3333333333333333148, 0.3333333333333333148, 1.000000000000000000),
 ( 0.8704604635415936764, 0.2901534878471978551, 0.2901534878471978551, 0.8704604635415936764, 0.2901534878471978551, 0.2901534878471978551, 0.8704604635415936764),
 ( 0.8704604635415936764, 0.2901534878471978551, 0.2901534878471978551, 0.8704604635415936764, 0.2901534878471978551, 0.2901534878471978551, 0.8704604635415936764),
 ( 1.000000000000000000, 0.3333333333333333148, 0.3333333333333333148, 1.000000000000000000, 0.3333333333333333148, 0.3333333333333333148, 1.000000000000000000) ) ) 
 REPRESENTATION_ITEM ( '' )  SURFACE ( )  );
#94 = DIRECTION ( 'NONE',  ( 0.000000000000000000, -1.000000000000000000, 0.000000000000000000 ) ) ;
#95 = CARTESIAN_POINT ( 'NONE',  ( 5.483787781522369726E-16, 199.9999999999999716, -4.382404543304999400 ) ) ;
#96 = ADVANCED_BREP_SHAPE_REPRESENTATION ( '524214', ( #7, #83 ), #40 ) ;
#97 = PERSON ( 'Î´Ö¸¶¨', 'Î´Ö¸¶¨', 'Î´Ö¸¶¨', ('Î´Ö¸¶¨'), ('Î´Ö¸¶¨'), ('Î´Ö¸¶¨') ) ;
#98 = DIRECTION ( 'NONE',  ( -0.000000000000000000, -1.000000000000000000, -0.000000000000000000 ) ) ;
#99 = CIRCLE ( 'NONE', #288, 1.649999999999998579 ) ;
#100 = DIRECTION ( 'NONE',  ( 0.000000000000000000, -0.000000000000000000, 1.000000000000000000 ) ) ;
#101 = CARTESIAN_POINT ( 'NONE',  ( 0.000000000000000000, 1.040949779275260987E-16, -2.499999999999998224 ) ) ;
#102 = CC_DESIGN_APPROVAL ( #139, ( #148 ) ) ;
#103 = CARTESIAN_POINT ( 'NONE',  ( 0.000000000000000000, 199.9999999999999716, 4.382404543304999400 ) ) ;
#104 = VERTEX_POINT ( 'NONE', #202 ) ;
#105 = DIRECTION ( 'NONE',  ( -0.000000000000000000, -1.000000000000000000, -0.000000000000000000 ) ) ;
#106 = ADVANCED_FACE ( 'NONE', ( #308, #193 ), #239, .F. ) ;
#107 = VERTEX_POINT ( 'NONE', #101 ) ;
#108 = ORIENTED_EDGE ( 'NONE', *, *, #27, .F. ) ;
#109 = DATE_TIME_ROLE ( 'classification_date' ) ;
#110 = EDGE_LOOP ( 'NONE', ( #257, #64 ) ) ;
#111 = ORIENTED_EDGE ( 'NONE', *, *, #307, .T. ) ;
#112 = APPLICATION_PROTOCOL_DEFINITION ( 'international standard', 'config_control_design', 1994, #81 ) ;
#113 = ORIENTED_EDGE ( 'NONE', *, *, #85, .T. ) ;
#114 = CC_DESIGN_PERSON_AND_ORGANIZATION_ASSIGNMENT ( #59, #279, ( #223 ) ) ;
#115 = CALENDAR_DATE ( 2024, 12, 6 ) ;
#116 = AXIS2_PLACEMENT_3D ( 'NONE', #25, #94, #263 ) ;
#117 = EDGE_CURVE ( 'NONE', #232, #167, #297, .T. ) ;
#118 = FACE_BOUND ( 'NONE', #273, .T. ) ;
#119 = CC_DESIGN_APPROVAL ( #22, ( #187 ) ) ;
#120 = AXIS2_PLACEMENT_3D ( 'NONE', #86, #138, #254 ) ;
#121 = CARTESIAN_POINT ( 'NONE',  ( 0.000000000000000000, 199.9999999999999716, 4.382404543304999400 ) ) ;
#122 = CONICAL_SURFACE ( 'NONE', #52, 6.000000000085492502, 0.7853981633406048601 ) ;
#123 = DIRECTION ( 'NONE',  ( 0.000000000000000000, 0.000000000000000000, -1.000000000000000000 ) ) ;
#124 = DIRECTION ( 'NONE',  ( 0.000000000000000000, 1.000000000000000000, 0.000000000000000000 ) ) ;
#125 = DIRECTION ( 'NONE',  ( -0.000000000000000000, -1.000000000000000000, -0.000000000000000000 ) ) ;
#126 = CARTESIAN_POINT ( 'NONE',  ( 9.583974353807441560, 199.8656410339957574, 4.791987176903720780 ) ) ;
#127 = CARTESIAN_POINT ( 'NONE',  ( -8.764809086609998801, 199.9999999999999716, -4.382404543304999400 ) ) ;
#128 = CARTESIAN_POINT ( 'NONE',  ( 0.000000000000000000, 199.8656410339957574, 4.791987176903720780 ) ) ;
#129 = VERTEX_POINT ( 'NONE', #221 ) ;
#130 = AXIS2_PLACEMENT_3D ( 'NONE', #212, #282, #15 ) ;
#131 = VERTEX_POINT ( 'NONE', #293 ) ;
#132 = ORIENTED_EDGE ( 'NONE', *, *, #3, .F. ) ;
#133 = PERSON_AND_ORGANIZATION ( #97, #217 ) ;
#134 = AXIS2_PLACEMENT_3D ( 'NONE', #301, #278, #41 ) ;
#135 = PERSON_AND_ORGANIZATION ( #97, #217 ) ;
#136 = EDGE_LOOP ( 'NONE', ( #191 ) ) ;
#137 = CARTESIAN_POINT ( 'NONE',  ( 0.000000000000000000, 0.000000000000000000, 0.000000000000000000 ) ) ;
#138 = DIRECTION ( 'NONE',  ( -0.000000000000000000, -1.000000000000000000, -0.000000000000000000 ) ) ;
#139 = APPROVAL ( #164, 'Î´Ö¸¶¨' ) ;
#140 = COORDINATED_UNIVERSAL_TIME_OFFSET ( 8, 0, .AHEAD. ) ;
#141 = CONICAL_SURFACE ( 'NONE', #179, 5.999999999971805664, 0.3028848683740845149 ) ;
#142 = FACE_OUTER_BOUND ( 'NONE', #166, .T. ) ;
#143 = ORIENTED_EDGE ( 'NONE', *, *, #307, .F. ) ;
#144 = ADVANCED_FACE ( 'NONE', ( #259, #192 ), #18, .F. ) ;
#145 = DATE_AND_TIME ( #89, #19 ) ;
#146 = DIRECTION ( 'NONE',  ( 0.000000000000000000, 1.000000000000000000, 0.000000000000000000 ) ) ;
#147 = CARTESIAN_POINT ( 'NONE',  ( 5.483787781522369726E-16, 199.9999999999999716, -4.382404543304999400 ) ) ;
#148 = PRODUCT_DEFINITION_FORMATION_WITH_SPECIFIED_SOURCE ( 'ÈÎºÎ', '', #223, .NOT_KNOWN. ) ;
#149 = FACE_OUTER_BOUND ( 'NONE', #38, .T. ) ;
#150 = CARTESIAN_POINT ( 'NONE',  ( 0.000000000000000000, 199.9999999999999716, 0.000000000000000000 ) ) ;
#151 = DIRECTION ( 'NONE',  ( 0.000000000000000000, 1.000000000000000000, 0.000000000000000000 ) ) ;
#152 = ADVANCED_FACE ( 'NONE', ( #199, #47 ), #122, .T. ) ;
#153 = CARTESIAN_POINT ( 'NONE',  ( 9.583974353807441560, 199.8656410339957574, -4.791987176903720780 ) ) ;
#154 = CARTESIAN_POINT ( 'NONE',  ( 9.218466664468715877, 199.9999999999999432, -4.609233332234357938 ) ) ;
#155 = VERTEX_POINT ( 'NONE', #247 ) ;
#156 = CIRCLE ( 'NONE', #272, 4.859644532331230948 ) ;
#157 = DIRECTION ( 'NONE',  ( 0.000000000000000000, 0.000000000000000000, -1.000000000000000000 ) ) ;
#158 = CARTESIAN_POINT ( 'NONE',  ( 0.000000000000000000, 0.000000000000000000, 0.000000000000000000 ) ) ;
#159 = PERSON_AND_ORGANIZATION ( #97, #217 ) ;
#160 = ORIENTED_EDGE ( 'NONE', *, *, #198, .T. ) ;
#161 = LOCAL_TIME ( 10, 6, 34.00000000000000000, #283 ) ;
#162 = COORDINATED_UNIVERSAL_TIME_OFFSET ( 8, 0, .AHEAD. ) ;
#163 = EDGE_LOOP ( 'NONE', ( #108 ) ) ;
#164 = APPROVAL_STATUS ( 'not_yet_approved' ) ;
#165 = AXIS2_PLACEMENT_3D ( 'NONE', #175, #125, #220 ) ;
#166 = EDGE_LOOP ( 'NONE', ( #184 ) ) ;
#167 = VERTEX_POINT ( 'NONE', #121 ) ;
#168 = EDGE_CURVE ( 'NONE', #104, #104, #229, .T. ) ;
#169 = CALENDAR_DATE ( 2024, 12, 6 ) ;
#170 = CARTESIAN_POINT ( 'NONE',  ( 0.000000000000000000, 0.5000000000000004441, 0.000000000000000000 ) ) ;
#171 = FACE_OUTER_BOUND ( 'NONE', #16, .T. ) ;
#172 = CARTESIAN_POINT ( 'NONE',  ( 0.000000000000000000, 25.00000000000000000, 0.000000000000000000 ) ) ;
#173 = CC_DESIGN_DATE_AND_TIME_ASSIGNMENT ( #213, #109, ( #187 ) ) ;
#174 = CARTESIAN_POINT ( 'NONE',  ( 0.000000000000000000, 199.6491374965103205, 0.000000000000000000 ) ) ;
#175 = CARTESIAN_POINT ( 'NONE',  ( 0.000000000000000000, 0.000000000000000000, 0.000000000000000000 ) ) ;
#176 = ADVANCED_FACE ( 'NONE', ( #149 ), #235, .F. ) ;
#177 = CARTESIAN_POINT ( 'NONE',  ( 9.719289064679410117, 199.6491374965129637, -4.859644532339705059 ) ) ;
#178 = CARTESIAN_POINT ( 'NONE',  ( 0.000000000000000000, 199.9999999999999716, 4.609233332234357938 ) ) ;
#179 = AXIS2_PLACEMENT_3D ( 'NONE', #53, #270, #291 ) ;
#180 = CARTESIAN_POINT ( 'NONE',  ( 0.000000000000000000, 195.9999999999999716, -6.000000000000000888 ) ) ;
#181 = CARTESIAN_POINT ( 'NONE',  ( 0.000000000000000000, 199.6491374965103205, -4.859644532331230948 ) ) ;
#182 = ORIENTED_EDGE ( 'NONE', *, *, #3, .T. ) ;
#183 = PERSON_AND_ORGANIZATION_ROLE ( 'creator' ) ;
#184 = ORIENTED_EDGE ( 'NONE', *, *, #58, .T. ) ;
#185 = CC_DESIGN_PERSON_AND_ORGANIZATION_ASSIGNMENT ( #209, #183, ( #303 ) ) ;
#186 = EDGE_LOOP ( 'NONE', ( #143 ) ) ;
#187 = SECURITY_CLASSIFICATION ( '', '', #304 ) ;
#188 = APPROVAL_ROLE ( '' ) ;
#189 = PERSON_AND_ORGANIZATION ( #97, #217 ) ;
#190 = EDGE_LOOP ( 'NONE', ( #113 ) ) ;
#191 = ORIENTED_EDGE ( 'NONE', *, *, #168, .F. ) ;
#192 = FACE_OUTER_BOUND ( 'NONE', #42, .T. ) ;
#193 = FACE_OUTER_BOUND ( 'NONE', #234, .T. ) ;
#194 = APPROVAL ( #87, 'Î´Ö¸¶¨' ) ;
#195 = CARTESIAN_POINT ( 'NONE',  ( 0.000000000000000000, 199.9999999999999716, 4.382404543304999400 ) ) ;
#196 = DIRECTION ( 'NONE',  ( 0.000000000000000000, -1.000000000000000000, 0.000000000000000000 ) ) ;
#197 = AXIS2_PLACEMENT_3D ( 'NONE', #172, #98, #289 ) ;
#198 = EDGE_CURVE ( 'NONE', #155, #155, #99, .T. ) ;
#199 = FACE_OUTER_BOUND ( 'NONE', #136, .T. ) ;
#200 = CC_DESIGN_SECURITY_CLASSIFICATION ( #187, ( #148 ) ) ;
#201 = CARTESIAN_POINT ( 'NONE',  ( -9.218466664468715877, 199.9999999999999432, 4.609233332234357938 ) ) ;
#202 = CARTESIAN_POINT ( 'NONE',  ( 0.000000000000000000, 0.5000000000000004441, -6.000000000000000888 ) ) ;
#203 = AXIS2_PLACEMENT_3D ( 'NONE', #158, #227, #236 ) ;
#204 = VERTEX_POINT ( 'NONE', #10 ) ;
#205 = EDGE_CURVE ( 'NONE', #296, #296, #156, .T. ) ;
#206 = EDGE_LOOP ( 'NONE', ( #228 ) ) ;
#207 = COORDINATED_UNIVERSAL_TIME_OFFSET ( 8, 0, .AHEAD. ) ;
#208 = LOCAL_TIME ( 10, 6, 34.00000000000000000, #162 ) ;
#209 = PERSON_AND_ORGANIZATION ( #97, #217 ) ;
#210 = APPROVAL_DATE_TIME ( #43, #139 ) ;
#211 = EDGE_LOOP ( 'NONE', ( #256 ) ) ;
#212 = CARTESIAN_POINT ( 'NONE',  ( 0.000000000000000000, 189.8999999998977728, 0.000000000000000000 ) ) ;
#213 = DATE_AND_TIME ( #115, #161 ) ;
#214 = CC_DESIGN_PERSON_AND_ORGANIZATION_ASSIGNMENT ( #135, #92, ( #187 ) ) ;
#215 = DIRECTION ( 'NONE',  ( 0.000000000000000000, 0.000000000000000000, 1.000000000000000000 ) ) ;
#216 = DIRECTION ( 'NONE',  ( 0.000000000000000000, 1.000000000000000000, 0.000000000000000000 ) ) ;
#217 = ORGANIZATION ( 'Î´Ö¸¶¨', 'Î´Ö¸¶¨', '' ) ;
#218 = CYLINDRICAL_SURFACE ( 'NONE', #197, 6.000000000000000888 ) ;
#219 = ADVANCED_FACE ( 'NONE', ( #171, #285 ), #218, .T. ) ;
#220 = DIRECTION ( 'NONE',  ( 0.000000000000000000, 0.000000000000000000, -1.000000000000000000 ) ) ;
#221 = CARTESIAN_POINT ( 'NONE',  ( 0.000000000000000000, 11.00000000000000000, -2.499999999999998224 ) ) ;
#222 = CARTESIAN_POINT ( 'NONE',  ( 0.000000000000000000, 199.6491374965129353, 4.859644532339705059 ) ) ;
#223 = PRODUCT ( '524214', '524214', '', ( #90 ) ) ;
#224 = CARTESIAN_POINT ( 'NONE',  ( 0.000000000000000000, 199.9999999999999716, -4.382404543304999400 ) ) ;
#225 = CARTESIAN_POINT ( 'NONE',  ( 0.000000000000000000, 199.8656410339957574, 4.791987176903720780 ) ) ;
#226 = ADVANCED_FACE ( 'NONE', ( #287, #70 ), #1, .F. ) ;
#227 = DIRECTION ( 'NONE',  ( 0.000000000000000000, 1.000000000000000000, 0.000000000000000000 ) ) ;
#228 = ORIENTED_EDGE ( 'NONE', *, *, #205, .T. ) ;
#229 = CIRCLE ( 'NONE', #294, 6.000000000000000888 ) ;
#230 = ORIENTED_EDGE ( 'NONE', *, *, #27, .T. ) ;
#231 = AXIS2_PLACEMENT_3D ( 'NONE', #5, #105, #157 ) ;
#232 = VERTEX_POINT ( 'NONE', #261 ) ;
#233 = PERSON_AND_ORGANIZATION ( #97, #217 ) ;
#234 = EDGE_LOOP ( 'NONE', ( #11 ) ) ;
#235 = CONICAL_SURFACE ( 'NONE', #116, 2.499999999997726263, 1.029744258685237446 ) ;
#236 = DIRECTION ( 'NONE',  ( 0.000000000000000000, 0.000000000000000000, 1.000000000000000000 ) ) ;
#237 = APPROVAL_PERSON_ORGANIZATION ( #159, #139, #251 ) ;
#238 = CARTESIAN_POINT ( 'NONE',  ( 0.000000000000000000, 199.9999999999999716, 0.000000000000000000 ) ) ;
#239 = PLANE ( 'NONE',  #68 ) ;
#240 = DIRECTION ( 'NONE',  ( -0.000000000000000000, -1.000000000000000000, -0.000000000000000000 ) ) ;
#241 = FACE_BOUND ( 'NONE', #206, .T. ) ;
#242 = FACE_OUTER_BOUND ( 'NONE', #211, .T. ) ;
#243 = CARTESIAN_POINT ( 'NONE',  ( 0.000000000000000000, 199.9999999999999716, 4.609233332234357938 ) ) ;
#244 = ADVANCED_FACE ( 'NONE', ( #118, #260 ), #49, .T. ) ;
#245 = DESIGN_CONTEXT ( 'detailed design', #76, 'design' ) ;
#246 = CARTESIAN_POINT ( 'NONE',  ( -9.719289064679410117, 199.6491374965129637, -4.859644532339705059 ) ) ;
#247 = CARTESIAN_POINT ( 'NONE',  ( 0.000000000000000000, 199.9999999999999716, 1.649999999999998579 ) ) ;
#248 = UNCERTAINTY_MEASURE_WITH_UNIT (LENGTH_MEASURE( 1.000000000000000082E-05 ), #250, 'distance_accuracy_value', 'NONE');
#249 = EDGE_CURVE ( 'NONE', #167, #232, #82, .T. ) ;
#250 =( LENGTH_UNIT ( ) NAMED_UNIT ( * ) SI_UNIT ( .MILLI., .METRE. ) );
#251 = APPROVAL_ROLE ( '' ) ;
#252 = EDGE_LOOP ( 'NONE', ( #275 ) ) ;
#253 = PERSON_AND_ORGANIZATION_ROLE ( 'design_supplier' ) ;
#254 = DIRECTION ( 'NONE',  ( 0.000000000000000000, 0.000000000000000000, -1.000000000000000000 ) ) ;
#255 = PERSON_AND_ORGANIZATION ( #97, #217 ) ;
#256 = ORIENTED_EDGE ( 'NONE', *, *, #205, .F. ) ;
#257 = ORIENTED_EDGE ( 'NONE', *, *, #117, .F. ) ;
#258 = ADVANCED_FACE ( 'NONE', ( #21, #241 ), #141, .T. ) ;
#259 = FACE_OUTER_BOUND ( 'NONE', #60, .T. ) ;
#260 = FACE_OUTER_BOUND ( 'NONE', #110, .T. ) ;
#261 = CARTESIAN_POINT ( 'NONE',  ( 5.483787781522369726E-16, 199.9999999999999716, -4.382404543304999400 ) ) ;
#262 = DIRECTION ( 'NONE',  ( 0.000000000000000000, 1.000000000000000000, 0.000000000000000000 ) ) ;
#263 = DIRECTION ( 'NONE',  ( 0.000000000000000000, 0.000000000000000000, -1.000000000000000000 ) ) ;
#264 = CONICAL_SURFACE ( 'NONE', #130, 1.649999999870033207, 1.029744258665856727 ) ;
#265 = CARTESIAN_POINT ( 'NONE',  ( -9.719289064679410117, 199.6491374965129637, 4.859644532339705059 ) ) ;
#266 = CIRCLE ( 'NONE', #134, 6.000000000000000888 ) ;
#267 = CC_DESIGN_PERSON_AND_ORGANIZATION_ASSIGNMENT ( #189, #253, ( #148 ) ) ;
#268 = CARTESIAN_POINT ( 'NONE',  ( 9.719289064679410117, 199.6491374965129637, 4.859644532339705059 ) ) ;
#269 = CIRCLE ( 'NONE', #231, 2.499999999999998224 ) ;
#270 = DIRECTION ( 'NONE',  ( 0.000000000000000000, -1.000000000000000000, 0.000000000000000000 ) ) ;
#271 = CARTESIAN_POINT ( 'NONE',  ( 0.000000000000000000, 199.8656410339957574, -4.791987176903720780 ) ) ;
#272 = AXIS2_PLACEMENT_3D ( 'NONE', #174, #196, #123 ) ;
#273 = EDGE_LOOP ( 'NONE', ( #160 ) ) ;
#274 = CALENDAR_DATE ( 2024, 12, 6 ) ;
#275 = ORIENTED_EDGE ( 'NONE', *, *, #58, .F. ) ;
#276 = COORDINATED_UNIVERSAL_TIME_OFFSET ( 8, 0, .AHEAD. ) ;
#277 = APPROVAL_PERSON_ORGANIZATION ( #255, #22, #37 ) ;
#278 = DIRECTION ( 'NONE',  ( -0.000000000000000000, -1.000000000000000000, -0.000000000000000000 ) ) ;
#279 = PERSON_AND_ORGANIZATION_ROLE ( 'design_owner' ) ;
#280 = SHAPE_DEFINITION_REPRESENTATION ( #30, #96 ) ;
#281 = CC_DESIGN_PERSON_AND_ORGANIZATION_ASSIGNMENT ( #233, #66, ( #148 ) ) ;
#282 = DIRECTION ( 'NONE',  ( -0.000000000000000000, 1.000000000000000000, 0.000000000000000000 ) ) ;
#283 = COORDINATED_UNIVERSAL_TIME_OFFSET ( 8, 0, .AHEAD. ) ;
#284 = ADVANCED_FACE ( 'NONE', ( #51, #242 ), #93, .T. ) ;
#285 = FACE_OUTER_BOUND ( 'NONE', #36, .T. ) ;
#286 = CARTESIAN_POINT ( 'NONE',  ( 0.000000000000000000, 0.000000000000000000, 0.000000000000000000 ) ) ;
#287 = FACE_OUTER_BOUND ( 'NONE', #298, .T. ) ;
#288 = AXIS2_PLACEMENT_3D ( 'NONE', #150, #240, #309 ) ;
#289 = DIRECTION ( 'NONE',  ( 0.000000000000000000, 0.000000000000000000, -1.000000000000000000 ) ) ;
#290 = CARTESIAN_POINT ( 'NONE',  ( 0.000000000000000000, 0.5000000001018634066, 0.000000000000000000 ) ) ;
#291 = DIRECTION ( 'NONE',  ( 0.000000000000000000, 0.000000000000000000, -1.000000000000000000 ) ) ;
#292 = CC_DESIGN_APPROVAL ( #194, ( #303 ) ) ;
#293 = CARTESIAN_POINT ( 'NONE',  ( 0.000000000000000000, 189.8999999999999773, 1.649999999999998579 ) ) ;
#294 = AXIS2_PLACEMENT_3D ( 'NONE', #170, #216, #44 ) ;
#295 = CARTESIAN_POINT ( 'NONE',  ( 9.218466664468715877, 199.9999999999999432, 4.609233332234357938 ) ) ;
#296 = VERTEX_POINT ( 'NONE', #181 ) ;
#297 =( BOUNDED_CURVE ( )  B_SPLINE_CURVE ( 3, ( #95, #26, #72, #195 ),
 .UNSPECIFIED., .F., .T. ) 
 B_SPLINE_CURVE_WITH_KNOTS ( ( 4, 4 ),
 ( 0.000000000000000000, 1.000000000000000000 ),
 .UNSPECIFIED. ) 
 CURVE ( )  GEOMETRIC_REPRESENTATION_ITEM ( )  RATIONAL_B_SPLINE_CURVE ( ( 1.000000000000000000, 0.3333333333333333703, 0.3333333333333333703, 1.000000000000000000 ) ) 
 REPRESENTATION_ITEM ( '' )  );
#298 = EDGE_LOOP ( 'NONE', ( #305 ) ) ;
#299 = APPLICATION_PROTOCOL_DEFINITION ( 'international standard', 'config_control_design', 1994, #76 ) ;
#300 = DATE_AND_TIME ( #274, #63 ) ;
#301 = CARTESIAN_POINT ( 'NONE',  ( 0.000000000000000000, 195.9999999999999716, 0.000000000000000000 ) ) ;
#302 = DIRECTION ( 'NONE',  ( 0.000000000000000000, 0.000000000000000000, 1.000000000000000000 ) ) ;
#303 = PRODUCT_DEFINITION ( 'Î´Öª', '', #148, #245 ) ;
#304 = SECURITY_CLASSIFICATION_LEVEL ( 'unclassified' ) ;
#305 = ORIENTED_EDGE ( 'NONE', *, *, #198, .F. ) ;
#306 = ORIENTED_EDGE ( 'NONE', *, *, #249, .T. ) ;
#307 = EDGE_CURVE ( 'NONE', #107, #107, #269, .T. ) ;
#308 = FACE_BOUND ( 'NONE', #186, .T. ) ;
#309 = DIRECTION ( 'NONE',  ( 0.000000000000000000, 0.000000000000000000, 1.000000000000000000 ) ) ;
ENDSEC;
END-ISO-10303-21;
